Ricaine

Touch Me I'm Famous

Ricaine

tabs

save to print version add songbook text version e-mail correct tuner
chordsukulelecavacokeyboardtabbassdrumsharmonicaflute Guitar Pro
close

there isn't a video lesson for this song

chords

Touch Me I'm Famous

	  		I'm pretty sure it's correct as I saw them play it at Meredith last  
year. I've put all the notes for the chords on the tab but   
 the guitarist mainly plays the lower strings. I've tried to show 
timing but as always it's best to listen to the CD. 
 
Main Riff 
   F#                          E  
E--0-2--0-2--0-2--0-2-2-2--|--0---0-000---0--0---0-000-- 
B--0-2--0-2--0-2--0-2-2-2--|--0---0-000---0--0---0-000-- 
G--3-3--3-3--3-3--3-3-3-3--|--1---1-111---1--1---1-111-- 
D--4-4--4-4--4-4--4-4-4-4--|--2---2-222---2--2---2-222-- 
A--4-4--4-4--4-4--4-4-4-4--|--2---2-222---2--2---2-222-- 
E--0-2--0-2--0-2--0-2-2-2--|--0---0-000---0--0---0-000--...and so on... 
 Play this bar a few times       
 and then onto the next one. 
 
 
Verse 
   F#       I spy           And I say  
E--2-2-0-2---------2-2-0-2------------- 
B--2-2-0-2---------2-2-0-2------------- 
G--3-3-3-3---------3-3-3-3------------- 
D--4-4-4-4---------4-4-4-4------------- 
A--4-4-4-4---------4-4-4-4------------- 
E--2-2-0-2---------2-2-0-2-------------...etc... 
 
I think that's the guts of the song, the rest is just variations of those riffs 

		  

Full key step upFull key step up
Half key step upHalf key step up
Half key step downHalf key step down
Full key step downFull key step down
hide glossary

See also:

tabs The Screaming Jets - Better tabs Leonardo's Bride - Even When I'm Sleeping tabs The Skyhooks - Living In The 70s tabs The Veronicas - Everything I'm Not tabs Pete Murray - Fall Your Way tabs Nick Cave (and the Bad Seeds) - Red Right Hand
e-chords

Other versions:

tabs Ricaine - Touch Me I'm Famous
auto scroll beats size up size down change color hide chords drawings
tab show chords e-chords YouTube Clip e-chords hide all tabs e-chords go to top tab

share