Rhapsody

home > Rhapsody

Rage Of The Winter Tab

Rhapsody

Difficulty: nolevelnolevel

tuner correct add songbook print version text version save to e-mail
chordsukulelecavacokeyboardtabbassdrumsharmonicsflute Guitar Pro
chords

Rage Of The Winter

Year: 1997 - Album: Legendary Tales

  		 
			    x2			  (I'm not quite sure here)	 
E---------------------------------------------------------------------------------| 
B-----------------------|-----------------|--8-0-7-0-8-0-10-0-8-0-7-0-8-0-7-0-8-0-| 
G-----------------------|-----------------|---------------------------------------| 
D-----------------------|--3--4--5--7--9--|--9------------------------------------| 
A---5----4----7----2----|--1--2--3--5--7--|--7------------------------------------| 
E---3----2----5----0--------------------------------------------------------------| 
 
E---------------------------------------------------------------------------------| 
B-10-0-8-0-7-0-5-0-3-0-5-0-7-0-5-0-7--8-0-7-0-8-0-10-0-8-0-7-0-8-0-7-0-8-0-10-0-8-| 
G---------------------------------------------------------------------------------| 
D--------------5-----------7----------9------------------------9------------------| 
A--------------3-----------5----------7------------------------7------------------| 
E--------------------------------------------------------------0------------------| 
 
E---------------------------------------------------------------------------------| 
B-0-7-0-5-0-3-0-5-0-7-0-5-0-7-0--8-0-7-0-8-0-10-0-8-0-7-0-8-0-7-0-8-0-10-0-8-0-7-0| 
G---------------------------------------------------------------------------------| 
D-------5-----------7-------------------------------------------------------------| 
A-------3-----------5-------------------------------------------------------------| 
E---------------------------------------------------------------------------------| 
 
E---------------------------------------------------------------------------------| 
B-5-0-3-0-5-0-7-0-5-0-7-0--8-0-7-0-8-0-10-0-8-0-7-0-8-0-7-0-8-0-10-0-8-0-7-0-5-0-3| 
G---------------------------------------------------------------------------------| 
D---------------------------------------------------------------------------------| 
A---------------------------------------------------------------------------------| 
E---------------------------------------------------------------------------------| 
 
						 Verse 1	    x2  Chorus 
E--------------------------------------3------7------2------5---------------------| 
B-0-5-0-7-0-5-0-7-0-8-0-7-0-5-0-5-0-|--4------8------3------6----5----|-----------| 
G-----------------------------------|*-5------9------4------7----6---*|*----------| 
D------------------12--10---9---9---|*-5------9------4------7----7---*|*-3-----5--| 
A------------------10---9---7---7---|--3------7------2------5----7----|--1--3--3--| 
E----------------------------------------------------------------5----------1-----| 
 
		     x2  Riff 1 
E-----------------------------15-17-18--17-15h17p15----15-18-17-15h17p15-13-17--15| 
B------------------|-15-17-18-----------------------15----------------------------| 
G-----------------*|--------------------------------------------------------------| 
D--7--3-----5--7--*|--------------------------------------------------------------| 
A--5--1--3--3--5---|--------------------------------------------------------------| 
E--------1------------------------------------------------------------------------| 
 
									end Riff 1 
E-13-12-12-13-15--16--17--18-17h18p17-15-/22--17-15-13----------------------------| 
B-------------------------------------------------------15-15--14-14--17-18-15~~15| 
G---------------------------------------------------------------------------------| 
D---------------------------------------------------------------------------------| 
A---------------------------------------------------------------------------------| 
E---------------------------------------------------------------------------------| 
  
 Verse 2 
E-3------7------------------7--2------5-----------3------7-------------7-8-10--2--| 
B-4------8------8----7-8-10----3------6----5------4------8--8---8---10---------3--| 
G-5------9---9-----9-----------4------7----6------5------9----9---9------------4--| 
D-5------9---------------------4------7----7------5------9---------------------4--| 
A-3------7---------------------2------5----7------3------7---------------------2--| 
E------------------------------------------5--------------------------------------| 
 
								  Guitar Solo 1 
E-----5-------------------------------------------10------------------10-14-------| 
B-----6--6----5-------|--------|--------|-------|---12--------------12-----15-----| 
G-----7----5--6-7-6---|-Chorus-|-Riff-1-|-------|-----11----------11---------16---| 
D-----7-------7-----5-|--------|--------|-7-----|-------12------12-------------16-| 
A-----5-------7-------|--------|--------|-5-----|---------14--14------------------| 
E-------------5---------------------------------------------14--------------------| 
 
E-------------14-/21~--21-17-16-14b(16)-r14---21-18----17-15-------------------22-| 
B-----------15--------------------------------------19-------19-17-15-14-15-------| 
G---------16----------------------------------------------------------------------| 
D-------16------------------------------------------------------------------------| 
A-17--17--------------------------------------------------------------------------| 
E---19----------------------------------------------------------------------------| 
 
E-21-19--21-17-14---16--13---------------------18-14----19-14-----19-21-21b(22)-r-| 
B--------------------------15-15b(17)-r15-14---------14-------15------------------| 
G---------------------------------------------------------------------------------| 
D---------------------------------------------------------------------------------| 
A---------------------------------------------------------------------------------| 
E---------------------------------------------------------------------------------| 
 
E-21-14--13-16-14~---9------------------9-10------------------10-8----------------| 
B---------------------11--------------11----12--------------12----8---------------| 
G-----------------------11----------11--------12----------12-------9-------------9| 
D-------------------------11------11------------12------12----------10---------10-| 
A---------------------------13--13----------------14--14--------------10-----10---| 
E-----------------------------14--------------------15------------------12812-----| 
 
E---8-8---------10----------10---------12----------12----------13----------13-----| 
B-8----8----------12----------12---------13----------13----------15----------15---| 
G-------9-----------12----------12---------14----------14----------15----------15-| 
D--------10-----------12----------12---------14----------14----------15-----------| 
A----------10-----------14----------14---------15----------15----------17---------| 
E------------12-----------15----------15---------17----------17----------18-------| 
 
E------------------15-15----------------------17-17----------------------14---14--| 
B----------------17-----17------------------18-----18------------------15--15---15| 
G--------------17---------17--------------19---------19--------------16-----------| 
D-15---------17-------------17----------19-------------19----------16-------------| 
A---17-----19-----------------19---17-20-----------------20-17---17---------------| 
E-----18-20---------------------20-----------------------------19-----------------| 
 
E---14-----13~~-----14----14-/21p19h21p19-17--13----13-/21p19h21p19-17--14----14--| 
B-----15---------------14------------------------14------------------------15-----| 
G-16----16------------------------------------------------------------------------| 
D---------------------------------------------------------------------------------| 
A---------------------------------------------------------------------------------| 
E---------------------------------------------------------------------------------| 
 
E-/22p21h22p21-19----------14-16-17-----12----12-/19p17h19p17-15--11----11-/19p17h| 
B------------------14-16-18----------------12------------------------12-----------| 
G---------------------------------------------------------------------------------| 
D---------------------------------------------------------------------------------| 
A---------------------------------------------------------------------------------| 
E---------------------------------------------------------------------------------| 
 
E-19p17-15--12----12-/20p19h20p19-17-----------12-14-15-----10----10-/17p15h17p15-| 
B--------------13---------------------12-14-16-----------------10-----------------| 
G---------------------------------------------------------------------------------| 
D---------------------------------------------------------------------------------| 
A---------------------------------------------------------------------------------| 
E---------------------------------------------------------------------------------| 
 
E-13--9----9-/17p15h17p15-13--10----10-/18p17h18p17-15----------10-12-13----------| 
B-------10-----------------------11--------------------10-12-14----------15-16-17-| 
G---------------------------------------------------------------------------------| 
D---------------------------------------------------------------------------------| 
A---------------------------------------------------------------------------------| 
E---------------------------------------------------------------------------------| 
				 
								 end Guitar Solo 1 
E-15-16-17-------12-15-12--------12-15-18p17h18p17-15--14h15p14h15p14h15p14h15p14-| 
B-------------14----------14--14--------------------------------------------------| 
G----------14---------------------------------------------------------------------| 
D---------------------------------------------------------------------------------| 
A---------------------------------------------------------------------------------| 
E---------------------------------------------------------------------------------| 
 
                     x2			      Gtr.1 
E------------------------------------------------------13------13--/20--18-16-15--| 
B----------------------|-----------------|-13------13------13---------------------| 
G----------------------|-----------------|-----13---------------------------------| 
D----------------------|--3--4--5--7--9--|-Gtr.2----------------------------------| 
A---5----4----7----2---|--1--2--3--5--7--|-8888888888888888888888--33333333333333-| 
E---3----2----5----0--------------------------------------------------------------| 
					   pm.....................................| 
 
E-13-11-13b(15)--r13-11-9--8h9p8h9-6h8p6h8-4h6p4h6-3h4p3h4------------------------| 
B----------------------------------------------------------6h8p6h8-5h6p5h6--------| 
G--------------------------------------------------------------------------6h8p6h8| 
D---------------------------------------------------------------------------------| 
A-33333-44444444444444444---------------------------------------------------------| 
E--------------------------6--6--6--6--6--6--6--6--6--6--6--6--6--6--6--6--6--6--6| 
 pm...............................................................................| 
 
E---------------------------------------------------------------------------------| 
B-------------------|-------------------------------------------------------------| 
G-5h6p5h6p5h6p5-5~~-|-------------------------------------------------------------| 
D-------------------|-10-10----10-10-10----10-10--------------10-10----10-10-10---| 
A-------------------|--8--8-----8--8--8-----8--8----8----5-----8--8-----8--8--8---| 
E--6--6--6--6-------------------------------------8---8--7------------------------| 
  pm.........| 
			   Guitar Solo 2 
E------------------------18-20-16-------16-20h21p20-16----20-18-16-18-16-15-16-15-| 
B-------------------|-------------18-------------------18-------------------------| 
G-------------------|----------------17-------------------------------------------| 
D-10-10-------------|-------------------------------------------------------------| 
A--8--8----8----5---|-------------------------------------------------------------| 
E--------8---8--7-----------------------------------------------------------------| 
 
E------------------------------------------------------------------------------/15| 
B-18-16-14------------------------------------------------------------------------| 
G----------17-15-13---------------------------------------------------------------| 
D------------------17-15-14----------------------------14-15-17-13----------13----| 
A----------------------------16-15-13----------13-15-16------------15----15-------| 
E-------------------------------------16-15-16------------------------15----------| 
 
E-13-15-16-15-15------------------------------------------------------------------| 
B----------------/14-13-11----------------------------------9-----9-11-12----15-12| 
G--------------------------13-12-10----------------13-12-10---10---------12-------| 
D-----------------------------------14-10-12-10-14--------------------------------| 
A---------------------------------------------------------------------------------| 
E---------------------------------------------------------------------------------| 
 
								Verse 3 
E-13----16-13--/22-20-19-16-15~~----------------3--------------------7---------2--| 
B----15---------------------------|-----------|-6--------------------8--8-7----3--| 
G---------------------------------|-Orchestra-|-5----5-7-8-7-8-7-5---9------9--4--| 
D---------------------------------|-----------|-5--5-----------------9---------4--| 
A---------------------------------|-----------|-3--------------------7---------2--| 
E---------------------------------------------------------------------------------| 
 
E------------------5--------3---------------6-8-10-11---7------2---------6-8-10---| 
B------------------6---5----6---------6-8-9-------------8------3---6-8-9----------| 
G---4-6-7-6-7-6-4--7---6----5---5-7-8-------------------9------4------------------| 
D-4----------------7---7----5---------------------------9------4------------------| 
A------------------5---7----3---------------------------7------2------------------| 
E----------------------5----------------------------------------------------------| 
 
E-5---5-8-7-5------------------------| 
B-6-----------5---|--------|--------|| 
G-7-----------6---|-Chorus-|-Riff-1-|| end 
D-7-----------7---|--------|--------||  
A-5-----------7---|--------|--------|| 
E-------------5----------------------| 
 
Guitar 2 during solo 2 
E---------------------------------------------------------------------------------| 
B---------------------------------------------------------------------------------| 
G---------------------------------------------------------------------------------| 
D---------------------------------------------------------------------------------| 
A-8-8-8-8-8-8-8-8-8-8-8-8-8-8-8-8-3-3-3-3-3-3-3-3-3-3-3-3-3-3-4-4-4-4-4-4-4-4-4-4-| 
E---------------------------------------------------------------------------------| 
 pm.............................................................................. 
 
E-------------------------------------------| 
B-------------------------------------------| 
G-------------------------------------------|  
D-------------------------------------------| 
A-4-4---------------------------------------| 
E-----3-3-3-3-3-3-3-3-3-3-3-3-3-3-3-3-3-3---| 
 ........................................| 
 
TABLATURE EXPLANATION 
---------------------- 
h= hammer on 
 
p= pull off 
 
pm..|= palm mute 
 
b()= bend 
 
~~= vibrato 
 
/= slide up 
 
\= slide down 
 
|	| 
|	| 
|*   *| = repeat from * to * 
|*   *|  
|     | 
 
LYRICS: RAGE OF THE WINTER 
************************************************************** 
Words By: Luca Turilli 
 
Cold is the winter snow falls down 
mystical lights dance in the sky to the winds of night 
Spell of the nature fill all my soul 
kiss with your wonderfull song my land with love 
 
Rage of winter mould the horizon 
cover the mountain forests and lakes 
Rage of the winter magical wonder 
enchanted fury majestic force 
 
There's no words to describe the poetry of landscape 
I can recieve all the magic that my season gives 
Tears of winter falling on me freezing my dark side 
my heart must be wide fair full fight eyes 
 
Rage of winter mould the horizon 
cover the mountain forests and lakes 
Rage of the winter  magical wonder 
enchanted fury majestic force 
 
Cold is the winter snow falls down 
mystical lights dance in the sky to the winds of night 
Spell of the nature fill all my soul 
kiss with your wonderfull song my land with love 
 
Rage of winter mould the horizon 
cover the mountain forests and lakes 
Rage of the winter  magical wonder 
enchanted fury majestic force 
 
 
_______________________________________________________ 
Contribuição: Tiago da Silva Colucci([email protected]) 

	  

Search Paypal
auto scroll beats size up size down change color hide chords drawings
tab show chords e-chords YouTube Clip e-chords hide all tabs e-chords go to top tab