Rev Theory

You're The One

Rev Theory

tabs

by  ABELAMIN

save to print version add songbook text version e-mail correct tuner
chordsukulelecavacokeyboardtabbassdrumsharmonicaflute Guitar Pro
close

there isn't a video lesson for this song

chords

You're The One

	  		

|| Intro || 

e |-------7-9-7-----3-5-3---| 
B |-----7---------3---------| 
G |---4---------0-----------| 
D |-------------------------| 
A |-------------------------| 
E |-------------------------| 

|| Verse || 
                                              ALTERNATIVE: 
e |-------------------------|       e |-------------------------| 
B |---------2---------------|       B |---------2---------------| 
G |-------4---4-------------|       G |-------4---4-------2-----| 
D |-----4-----------5-7-5---| x3    D |-----4-----------5---5---| 
A |---2-----------5---------|       A |---2-----------5---------| 
E |-------------3-----------|       E |-------------3-----------| 

e |-------------------------| 
B |-----------0---------0---| 
G |-------0-2-------0-2-----| 
D |-----2---------0---------| 
A |-------------------------| 
E |---0---------2-----------| 

|| Pre-Chorus || 

e |-------------------------------| 
B |-------------------------------| 
G |---------------------------9---| 
D |---5---7---9---7---5---7---9---| 
A |---5---7---9---7---5---7---7---| 
E |---3---5---7---5---3---5-------| 

|| Chorus || 

Guitar 1 
e |-----------------------| 
B |-----------------------| 
G |-----------------------| 
D |---9---7---5---2---4---| x 2 
A |---9---7---5---2---4---| 
E |---7---5---3---0---2---| 

Guitar 1 
e |-------------------------------| 
B |-------------------------------| 
G |-------------------------------| 
D |---5---7---9---7---5---7---2---| 
A |---5---7---9---7---5---7---2---| 
E |---3---5---7---5---3---5---0---| 

Guitar 2 
e |-------------------------------| 
B |---15-14-12-14-12-10-----------| 
G |-------------------------------|      Last time through 
D |-------------------------------| x 3   let the 10 ring 
A |-------------------------------| 
E |-------------------------------| 

|| Post-Chorus || 

e |-------------------------| 
B |---------2---------------| 
G |-------4---4-------------| 
D |-----4-----------5-7-5---| x2 
A |---2-----------5---------| 
E |-------------3-----------| 

|| Verse II || 

Guitar 1 
e |-----------------------------------| 
B |-----------------------------------| 
G |-----------------------------------| 
D |---9---5---9---5---9---5---2---4---| 
A |---9---5---9---5---9---5---2---4---| 
E |---7---3---7---3---7---3---0---2---| 

Guitar 2 Tremolo effect 
e |-------------------------------------| 
B |---12------12----15-14-12------------| 
G |-------11-----------------------11---| 
D |-------------------------------------| 
A |-------------------------------------| 
E |-------------------------------------| 

|| Pre-Chorus || 

e |-------------------------------| 
B |-------------------------------| 
G |---------------------------9---| 
D |---5---7---9---7---5---7---9---| 
A |---5---7---9---7---5---7---7---| 
E |---3---5---7---5---3---5-------| 

|| Chorus || 

Guitar 1 
e |-----------------------| 
B |-----------------------| 
G |-----------------------| 
D |---9---7---5---2---4---| x 2 
A |---9---7---5---2---4---| 
E |---7---5---3---0---2---| 

Guitar 1 
e |-------------------------------| 
B |-------------------------------| 
G |-------------------------------| 
D |---5---7---9---7---5---7---2---| 
A |---5---7---9---7---5---7---2---| 
E |---3---5---7---5---3---5---0---| 

Guitar 2 
e |-------------------------------| 
B |---15-14-12-14-12-10-----------| 
G |-------------------------------|      
D |-------------------------------| x 3  
A |-------------------------------| 
E |-------------------------------| 

Guitar 1 
e |-------------------| 
B |-------------------| 
G |-------7-----------| 
D |---9---7---5---2---| 
A |---9---5---5---2---| 
E |---7-------3---0---| 

Guitar 2 
e |---------------------------------------15-14-12-14---| 
B |---12-15-14-12-12-15-14-12-12-15-14-12---------------| 
G |-----------------------------------------------------| 
D |-----------------------------------------------------|  
A |-----------------------------------------------------| 
E |-----------------------------------------------------| 

Guitar 1 
e |-------------------| 
B |-------------------| 
G |-------7-----------| 
D |---9---7---5---4---| 
A |---9---5---5---4---| 
E |---7-------3---2---| 

Guitar 2 
e |--------------------------------------------------| 
B |---12-15-14-12-12-15-14-12-12-15-14-12-17-15-17---| 
G |--------------------------------------------------| 
D |--------------------------------------------------|  
A |--------------------------------------------------| 
E |--------------------------------------------------| 

Guitar 1 
e |---------------| 
B |---------------| 
G |---------------| 
D |---5---7---2---| 
A |---5---7---2---| 
E |---3---5---0---| 

Guitar 2 
e |---14-12-14-17-14-17-19--------| 
B |-------------------------------| 
G |-------------------------------| 
D |-------------------------------| 
A |-------------------------------| 
E |-------------------------------| 

PAUSE... 

Guitar 1 
e |-----------------------| 
B |-----------------------| 
G |-----------------------| 
D |---9---7---5---2---4---| x 4 
A |---9---7---5---2---4---| 
E |---7---5---3---0---2---| 

Guitar 1 
e |-------------------------------| 
B |-------------------------------| 
G |-------------------------------| 
D |---5---7---9---7---5---7---2---| 
A |---5---7---9---7---5---7---2---| 
E |---3---5---7---5---3---5---0---| 

Guitar 2 
e |-------------------------------| 
B |---15-14-12-14-12-10-----------| 
G |-------------------------------| 
D |-------------------------------| x 3 
A |-------------------------------| 
E |-------------------------------| 

Guitar 1 
e |----------------| 
B |----------------| 
G |----------------| 
D |---9------------| 
A |---9-let ring---| 
E |---7------------| 

|| Outro || 

e |-------7-9-7-----3-5-3-------2-0---| 
B |-----7---------3-----------3-------| 
G |---4---------0-----------4---------| 
D |-----------------------2-----------| 
A |-----------------------------------| 
E |-----------------------------------| 
		  

auto scroll beats size up size down change color hide chords drawings
tab show chords e-chords YouTube Clip e-chords hide all tabs e-chords go to top tab

share