Rev Theory

Far From Over

Rev Theory

tabs Easy easy

by  HUGO_RODRIGUES

save to print version add songbook text version e-mail correct tuner
chordsukulelecavacokeyboardtabbassdrumsharmonicaflute Guitar Pro
close

there isn't a video lesson for this song

chords

Far From Over

	  		D|----------------------------------------------------|
A|----------------------------------------------------|
F|--7--------5--------3-------------------------------|
C|--7--------5--------3--------5-------7--------------|
G|--5-(x8)---3-(x8)---1-(x8)---5-(x4)--7--------------|
C|-----------------------------5-------7--------------|

	Guitarra 2 (Intro) Com Distortção: 0:00 - 0:11
D|----------------------------------------------------|
A|----------------------------------------------------|
F|--10--10/9--9/12--12\10--10-10------7------9--------|
C|--10--10/9--9/12--12\10--10-10------7------9--------|
G|--8---8-/7--7/10--10\8---8--8--(x3)-5-(x4)-7--------|
C|----------------------------------------------------|

Guitar 1 (Riff um) c/ Distortorção: 0:12 - 0:24
D|----------------------------------------------------|
A|----------------------------------------------------|
F|----------------------------------------------------|
C|--0-0-12--0--8-6-0-5-6-8-------0 -------------------|
G|--0-0-12--0--8-6-0-5-6-8-(x4)--0--------------------|
C|--0-0-12--0--8-6-0-5-6-8-------0--------------------|

Guitar 1 (Riff 2) c/o distorção: 0:37 - 0:48
D|--0-1------1-0-1-----0-1------1-0-1-8b--------------|
A|------3----------1-------3--------------------------|
F|----------------------------------------------------|
C|----------------------------------------------------|
G|----------------------------------------------------|
C|----------------------------------------------------|

Guitar 1 (Pre-refrão) c/ Distorção: 0:50 - 0:58
D|---------X--------------------------X---------------|
A|---------X--------------------------X---------------|
F|--7------X-------------------7------X---------------|
C|--7------X-------0-2-0-2-0-2-7------X---------------|
G|--5-(x2)-X-(x3)--0-2-0-2-0-2-5-(x2)-X-(x3)----------|
C|---------X-------0-2-0-2-0-2--------X---------------|

D|---------------------X------------------------------|
A|---------------------X------------------------------|
F|--------------7------X------6------/7---------------|
C|--0-2-0-2-0-2-7------X------6------/7---------------|
G|--0-2-0-2-0-2-5-(x2)-X-(x3)-4-(x4)-/5---------------|
C|--0-2-0-2-0-2--------X------------------------------|

Guitar 1 (refrão) c/ Distorção: 0:59 - 1:23
D|----------------------------------------------------|
A|----------------------------------------------------|
F|--7------5------3-----------------------------------| X2
C|--7------5------3------5------7------10-------------|
G|--5-(x8)-3-(x8)-1-(x8)-5-(x4)-7-(x3)-10-(x2)--------|
C|-----------------------5------7------10-------------|

	Guitar 2 (refrão) c/ Distorção: 0:59 - 1:23
D|----------------------------------------------------|
A|----------------------------------------------------|
F|--10--10/9--9/12--12\10--10-10------77777-77h9-9----| X2
C|--10--10/9--9/12--12\10--10-10----------------------|
G|--8---8-/7--7/10--10\8---8--8--(x3)-----------------|
C|----------------------------------------------------|

Guitar 1 (Riff 3) w/ Distorção: 1:24 - 1:30
D|----------------------------------------------------|
A|----------------------------------------------------|
F|----------------------------------------------------|
C|--0-0-12---0-8-6-0-5-6-8-------0 -------------------|
G|--0-0-12---0-8-6-0-5-6-8-(x2)--0--------------------|
C|--0-0-12---0-8-6-0-5-6-8-------0--------------------|

Guitar 1 (Riff quatro) c/o Distorção: 1:32 - 1:54
D|--0h1-1-0---(x4)-0h1/8------------------------------|
A|----------3-----------------------------------------|
F|----------------------------------------------------| X2
C|----------------------------------------------------|
G|----------------------------------------------------|
C|----------------------------------------------------|

Guitar 1 (Pré Refrão) c/ Distorção: 1:55 - 2:05
D|---------X--------------------------X---------------|
A|---------X--------------------------X---------------|
F|--7------X-------------------7------X---------------|
C|--7------X-------0-2-0-2-0-2-7------X---------------|
G|--5-(x2)-X-(x3)--0-2-0-2-0-2-5-(x2)-X-(x3)----------|
C|---------X-------0-2-0-2-0-2--------X---------------|

D|---------------------X------------------------------|
A|---------------------X------------------------------|
F|--------------7------X------6------/7---------------|
C|--0-2-0-2-0-2-7------X------6------/7---------------|
G|--0-2-0-2-0-2-5-(x2)-X-(x3)-4-(x4)-/5---------------|
C|--0-2-0-2-0-2--------X------------------------------|

Guitar 1 (Refrão) c/ Distorção: 2:06 - 2:30
D|----------------------------------------------------|
A|----------------------------------------------------|
F|--7------5------3-----------------------------------| X2
C|--7------5------3------5------7------10-------------|
G|--5-(x8)-3-(x8)-1-(x8)-5-(x4)-7-(x3)-10-(x2)--------|
C|-----------------------5------7------10-------------|

	Guitar 2 (Refrão) c/ Distorção: 2:06 - 2:30
D|----------------------------------------------------|
A|----------------------------------------------------|
F|--10--10/9--9/12--12\10--10-10------77777-77h9-9----| X2
C|--10--10/9--9/12--12\10--10-10----------------------|
G|--8---8-/7--7/10--10\8---8--8--(x3)-----------------|
C|----------------------------------------------------|

Guitar 1 (Solo) c/ Distorção: 2:31 - 2:56
D|--------8--5^--------8--5^--------8--5^----------------------------|
A|--3h5/6--------3h5/6---5----3h5/6---5---6-5-3-1-1h3/5--------------|
F|-------------------------------------------------------------------|
C|-------------------------------------------------------------------|
G|-------------------------------------------------------------------|
C|-------------------------------------------------------------------|

D|--/10-13-17-13-15-13-(x3)--12-(x4)-13-(x4)-15-(x4)-12h13p12--|
A|-------------------------------------------------------------------|
F|-------------------------------------------------------------------|
C|-------------------------------------------------------------------|
G|-------------------------------------------------------------------|
C|-------------------------------------------------------------------|

Guitar 1 (Riff cinco) c/o Distorção: 2:57 - 3:06
D|----------------------------------------------------|
A|----------------------------------------------------|
F|--7--------5--------3-------------------------------|
C|--7--------5--------3--------5-------7--------------|
G|--5-(x8)---3-(x8)---1-(x8)---5-(x4)--7--------------|
C|-----------------------------5-------7--------------|

	Guitar 2 (Riff cinco) c/o Distorção: 2:57 - 3:06
D|----------------------------------------------------|
A|----------------------------------------------------|
F|--10--10/9--9/12--12\10--10-------7------9----------|
C|--10--10/9--9/12--12\10--10-------7------9----------|
G|--8---8-/7--7/10--10\8---8---(x3)-5-(x2)-7----------|
C|----------------------------------------------------|

Guitar 1 (Riff seis) c/ Distorção: 3:08 - 3:45
D|----------------------------------------------------|
A|----------------------------------------------------|
F|--7------5------3-----------------------------------| X3
C|--7------5------3------5------7------10-------------|
G|--5-(x8)-3-(x8)-1-(x8)-5-(x4)-7-(x3)-10-(x2)--------|
C|-----------------------5------7------10-------------|

	Guitar 2 (Riff Seis) c/ Distorção: 3:08 - 3:45
D|----------------------------------------------------|
A|----------------------------------------------------|
F|--10--10/9--9/12--12\10--10-10------77777-77h9-9----| X3
C|--10--10/9--9/12--12\10--10-10----------------------|
G|--8---8-/7--7/10--10\8---8--8--(x3)-----------------|
C|----------------------------------------------------|

Guitar 1 (Outro) w/ Distorção: 3:46 - 3:48
D|----------------------------------------------------|
A|----------------------------------------------------|
F|----------------------------------------------------|
C|--0-0-12---0-8-6-0-5-6-8----------------------------|
G|--0-0-12---0-8-6-0-5-6-8----------------------------|
C|--0-0-12---0-8-6-0-5-6-8----------------------------| 
		  

auto scroll beats size up size down change color hide chords drawings
tab show chords e-chords YouTube Clip e-chords hide all tabs e-chords go to top tab

share