Resgate

home > Resgate

Os Dez Leprosos Tab

Resgate

Difficulty: nolevelnolevel

by thamer%5Fvh

tuner correct add songbook print version text version save to e-mail
chordsukulelecavacokeyboardtabbassdrumsharmonicsflute Guitar Pro
chords

Os Dez Leprosos

  		Os dez leprosos 
Resgate 
 
 
Intro  
 
e|---------------------------------------- 
d|---------------------------------------- 
g|-4/6--6--6\4---------------------------- 
d|--------------7--4---------------------- 
a|--------------------7------------------- 
e|---------------------------------------- 
 
Riff 1 
 
e|--5-5---5--5---5-5---0--0--------------- 
d|--5-5---7--7---5-5---0--0--------------- 
g|--6-6---7--7---6-6---1--1--------------- 
d|--7-7---7--7---7-7---2--2--------------- 
a|--7-7---5--5---7-7---2--2--------------- 
e|--5-5---5--5---5-5---0--0--------------- 
 
Riff 2 
 
e|---------------------------------------- 
d|---------------------------------------- 
g|---------------------------------------- 
d|----------7--4-------------------------- 
a|----4--7--------7--------4-------------- 
e|-5-----------------2--5-----0--4--7----- 
 
 
 Introdução: Intro + 7x Riff 2 
 
(Riff 2)                               (2x - Riff 1) 
 Incerta manhã dez leprosos acostumados ao descaso 
(Riff 2)                           (2x - Riff 1) 
 Abandonados caminham o caminho da dor 
(Riff 2)                                      (2x - Riff 1) 
 Incerta manhã dez leprosos abandonados pelo próximo 
(Riff 2)                               (2x - Riff 1) 
 De tão conformados jamais esperavam a cura 
 
 
  D                 E               A       D       E 
 Mas no caminho se depararam com o som que limpa e cura 
 A          E      F#m      D       A         E       F#m 
 Ouve-se a voz do Filho do Homem a lepra não pode permanecer 
  
 
(Riff 2)                                (2x - Riff 1) 
 Incerta manhã dez leprosos aprisionados a rotina 
(Riff 2)                          (2x - Riff 1) 
 Passam a vida esperando apenas a morte 
	  

Full key step upFull key step up
Half key step upHalf key step up
Half key step downHalf key step down
Full key step downFull key step down
Search Paypal
auto scroll beats size up size down change color hide chords drawings
tab show chords e-chords YouTube Clip e-chords hide all tabs e-chords go to top tab