Reparata

Shoes

Reparata

tabs

by  ROBEPOIEL

save to print version add songbook text version e-mail correct tuner
chordsukulelecavacokeyboardtabbassdrumsharmonicaflute Guitar Pro
close

there isn't a video lesson for this song

chords

Shoes

	  		
0:04 

G|----------------------------------------------------------------|. 
D|4---------------4---------------4---------------4-------2-------|. 
A|--------4---------------4---------------4-----------------------|. 
E|----------------------------------------------------------------|. 
                                                                   . x3 
G|----------------------------------------------------------------|. 
D|--------------------------------------------------------2-------|. 
A|5-------0-------5-------0-------5-------0-------5---------------|. 
E|----------------------------------------------------------------|. 

0:28 

G|--------------------------------4---------------4-\-3---3-\-2---| 
D|4---------------4-----------------------4-----------------------| 
A|--------4---------------4---------------------------------------| 
E|----------------------------------------------------------------| 

G|----------------------------------------------------------------| 
D|5---------------5---------------------------------------2-------| 
A|--------5---------------5-------5-------0-------5---------------| 
E|----------------------------------------------------------------| 

G|--------------------------------4---------------4-\-3---3-\-2---| 
D|4---------------4-----------------------4-----------------------| 
A|--------4---------------4---------------------------------------| 
E|----------------------------------------------------------------| 

G|--------------------------------| 
D|5---------------5---------------| 
A|--------5---------------5-------| 
E|--------------------------------| 

G|----------------------------------------------------------------| 
D|--------------------------------------------------------2-------| 
A|5-------0-------5-------0-------5-------0-------5---------------| 
E|----------------------------------------------------------------| 

0:45 

G|----------------------------------------------------------------|. 
D|4---------------4---------------4---------------4-------2-------|. 
A|--------4---------------4---------------4-----------------------|. 
E|----------------------------------------------------------------|. 
                                                                   . x4 
G|----------------------------------------------------------------|. 
D|0-------------------------------------------------------2-------|. 
A|5-------0-------5-------0-------5-------0-------5---------------|. 
E|----------------------------------------------------------------|. 

1:16 

G|----------------------------------------------------------------| 
D|4---------------4---------------4---------------4-------2-------| 
A|--------4---------------4---------------4-----------------------| 
E|----------------------------------------------------------------| 

G|--------------------------------| 
D|--------------------------------| 
A|5-------0-------5-------0-------| 
E|--------------------------------| 

G|----------------------------------------------------------------| 
D|----------------------------------------------------------------| 
A|5-------0-------5-------0-------5-------0-------5-------0-------| 
E|----------------------------------------------------------------| 

1:25 

G|----------------------------------------------------------------| 
D|----------------------------------------------------------------| 
A|5---------------------------------------------------------------| 
E|----------------------------------------------------------------| 

G|----------------6---------------------------------------------------| 
D|--------------------------------4-----4-----2-----------------------| 
A|4-------------------------------------------------5-----4-----2-----| 
E|--------------------------------------------------------------------| 

G|------------------------4---------------------------------------| 
D|----------------------------5-----------4-------2---------------| 
A|0-------------------------------------------------------5-------| 
E|----------------------------------------------------------------| 

G|--------------------------------| 
D|--------1-------3---------------| 
A|4-----------------------4-------| 
E|--------------------------------| 

1:39 

G|--------------------------------4---------------4-\-3---3-\-2---| 
D|4---------------4-----------------------4-----------------------| 
A|--------4---------------4---------------------------------------| 
E|----------------------------------------------------------------| 

G|----------------------------------------------------------------| 
D|5---------------5---------------------------------------2-------| 
A|--------5---------------5-------5-------0-------5---------------| 
E|----------------------------------------------------------------| 

G|--------------------------------4---------------4-\-3---3-\-2---| 
D|4---------------4-----------------------4-----------------------| 
A|--------4---------------4---------------------------------------| 
E|----------------------------------------------------------------| 

G|--------------------------------| 
D|5---------------5---------------| 
A|--------5---------------5-------| 
E|--------------------------------| 

G|----------------------------------------------------------------| 
D|--------------------------------------------------------2-------| 
A|5-------0-------5-------0-------5-------0-------5---------------| 
E|----------------------------------------------------------------| 

1:56 

G|----------------------------------------------------------------|. 
D|4---------------4---------------4---------------4-------2-------|. 
A|--------4---------------4---------------4-----------------------|. 
E|----------------------------------------------------------------|. 
                                                                   . x2 
G|----------------------------------------------------------------|. 
D|--------------------------------------------------------2-------|. 
A|5-------0-------5-------0-------5-------0-------5---------------|. 
E|----------------------------------------------------------------|. 

2:11 

G|----------------------------------------------------------------| 
D|4---------------4---------------4---------------4-------2-------| 
A|--------4---------------4---------------4-----------------------| 
E|----------------------------------------------------------------| 

G|----------------------------------------------------------------| 
D|----------------------------------------------------------------| 
A|5-------0-------5-------0-------5-------0-------5-------0-------| 
E|----------------------------------------------------------------| 

G|----------------------------------------------------------------| 
D|----------------------------------------------------------------| 
A|5-------0-------5-------0-------5-------------------------------| 
E|----------------------------------------------------------------| 

2:22 Until fadeout. 

G|----------------------------------------------------------------| 
D|4---------------4---------------4---------------4-------2-------| 
A|--------4---------------4---------------4-----------------------| 
E|----------------------------------------------------------------| 

G|----------------------------------------------------------------| 
D|--------------------------------------------------------2-------| 
A|5-------0-------5-------0-------5-------0-------5---------------| 
E|----------------------------------------------------------------| 
		  

See also:

tabs Deep Purple - Highway Star tabs Deep Purple - Smoke On The Water (Easy Intro) tabs Deep Purple - Space Truckin tabs Deep Purple - Rat Bat Blues tabs Deep Purple - Smoke On Water (ver. 2) tabs Deep Purple - Lazy
e-chords

Other versions:

tabs Reparata - Shoes tabs Guardian - shoeshine johnny
auto scroll beats size up size down change color hide chords drawings
tab show chords e-chords YouTube Clip e-chords hide all tabs e-chords go to top tab

share