Redd Kross

Tatum Otot

Redd Kross

tabs

by  TAMAMOREIRA

save to print version add songbook text version e-mail correct tuner
chordsukulelecavacokeyboardtabbassdrumsharmonicaflute Guitar Pro
close

there isn't a video lesson for this song

chords

Tatum Otot

	  		Intro riff: 

e|-------------------------------------------------| 
B|-------------------------------------------------| 
G|-------------------------------------------------| 
D|------------------------------------------7---5--| 
A|---------------------------------5---7p----------| 
E|-5---5---5---5---5---5---5---5-------------------| 


verse 1 riff: 

e|-------------------------------------------------| 
B|-------------------------------------------------| 
G|-------------------------------------------------| 
D|-7------------7---5------------------------------| 
A|-7---5---7p--------------------------------------| 
E|-5-----------------------------------------------| 

Play above x5. 


e|-------------------------------------------------| 
B|-------------------------------------------------| 
G|-7---6---5---4-------6---5---4-------6---5---4---| 
D|-7---6---5---4---7---6---5---4---7---6---5---4---| 
A|-5---4---3---2---7---4---3---2---7---4---3---2---| 
E|-5---4---3---2---5---4---3---2---5---4---3---2---| 


e|-------------------------------------------------| 
B|-------------------------------------------------| 
G|-9---8---7---6---5---4---------------------------| 
D|-9---8---7---6---5---4---7-----------------------| 
A|-7---6---5---4---3---2---7-----------------------| 
E|-7---6---5---4---3---2---5-----------------------| 

e|-------------------------------------------------| 
B|-------------------------------------------------| 
G|-6---5---4---------------------------------------| 
D|-6---5---4---7-----------------------------------| 
A|-4---3---2---7-----------------------------------| 
E|-4---3---2---5-----------------------------------| 

Play above x3. 


e|-------------------------------------------------| 
B|-------------------------------------------------| 
G|-------------------------------------------------| 
D|-5-----------------------------------------------| 
A|-5-----------------------------------------------| 
E|-3-----------------------------------------------| 


verse 2 riff: 

e|-------------------------------------------------| 
B|-------------------------------------------------| 
G|-------------------------------------------------| 
D|-7------------7---5------------------------------| 
A|-7---5---7p--------------------------------------| 
E|-5-----------------------------------------------| 

Play above x4. 

Chorus riff 

Solo (make up your own solo garblings) and play over: 

e|-------------------------------------------------| 
B|-------------------------------------------------| 
G|-------------------------------------------------| 
D|-7------------7---5------------------------------| 
A|-7---5---7p--------------------------------------| 
E|-5-----------------------------------------------| 


e|-------------------------------------------------| 
B|-------------------------------------------------| 
G|-7---8---9---10--11--12--13--14------------------| 
D|-7---8---9---10--11--12--13--14------------------| 
A|-5---6---7---8---9---10--11--12------------------| 
E|-5---6---7---8---9---10--11--12------------------| 


p= pull off 



My mind's like a trash can 
Don't think I see 
???? back? 
And Cindy Brady :) 

What do you say that hasn't been said 
What do you say that's never been said 
Where do you go where you haven't ever gone 
What do you do that's never been done 
Why even walk 
When you can run 

It's so loud in here 
You can hear everything 
It's gonna make you crazy 
Gonna need a shrink 

All this time for boredom can really be a drag 
So cover your head with a plastic bag 
Where do you go where you haven't ever gone 
What do you do that's never been done 
Why even walk 
When you can run 
		  

See also:

tabs Deep Purple - Sail Away tabs Deep Purple - Pictures of Home tabs Deep Purple - Lazy tabs Deep Purple - Highway Star tabs Deep Purple - Deep Purple - Smoke On The Water tabs Deep Purple - Smoke On The Water (Intro + solo 01)
e-chords

Other versions:

tabs Redd Kross - Tatum Otot
auto scroll beats size up size down change color hide chords drawings
tab show chords e-chords YouTube Clip e-chords hide all tabs e-chords go to top tab

share