Red

Love Will Leave A Mark

Red

tabs

by  ANG-LETRA

save to print version add songbook text version e-mail correct tuner
chordsukulelecavacokeyboardtabbassdrumsharmonicaflute Guitar Pro
close

there isn't a video lesson for this song

chords

Love Will Leave A Mark

	  		

Tuning: Drop A# 

Intro 
C|---------------------------------------------------------------------------| 
G|---------------------------------------------------------------------------| 
D#|--------------------------------------------------------------------------| 
a#|--------------------------------------------------------------------------| 
F|---------------------------------------------------------------------------| 
A#|-15-0-0-13-0-0-12-0-0-15-0-0-12-0-0-0-0-0-0---0---0-----------------------| 

C|---------------------------------------------------------------------------| 
G|---------------------------------------------------------------------------| 
D#|--------------------------------------------------------------------------| 
a#|--------------------------------------------------------------------------| 
F|---------------------------------------------------------------------------| 
A#|-15-0-0-13-0-0-12-0-0-15-0-0-12-0-0-0-0-0-0---0---15-13-12----------------| 

Verse I(Same as Intro, but play through twice. Also, the first run-through is played on the higher 
a# string) 

PreChorus I(x2) 
C|---------------------------------------------------------------------------| 
G|---------------------------------------------------------------------------| 
D#|--------------------------------------------------------------------------| 
a#|-0---0-0-0-0-15-------------0---0-0-10-12-13---12---10--------------------| 
F|--0---0-0-0-0-15-------------0---0-0-10-12-13---12---10--------------------| 
A#|-0---0-0-0-0-15-------------0---0-0-10-12-13---12---10--------------------| 
Here, bend the "15" chord slightly and slowly 

Chorus I 
C|---------------------------------------------------------------------------| 
G|---------------------------------------------------------------------------| 
D#|--------------------------------------------------------------------------| 
a#|-8--------0--------0-0-0-0-10-12-13---12---10-----------------------------| 
F|--8-(x24)--0-(x12)--0-0-0-0-10-12-13---12---10-----------------------------| 
A#|-8--------0--------0-0-0-0-10-12-13---12---10-----------------------------| 

C|---------------------------------------------------------------------------| 
G|---------------------------------------------------------------------------| 
D#|--------------------------------------------------------------------------| 
a#|-8--------10--------5-----------------------------------------------------| 
F|--8-(x24)--10-(x12)--5-(x12)-----------------------------------------------| 
A#|-8--------10--------5-----------------------------------------------------| 

Turnaround riff(0:47-0:54)(Same as Intro) 

Verse II(Same as Verse I) 

PreChorus II(Same as PreChorus I, but only play through once) 

Chorus II(Same as Chorus I, but play through twice) 

Pre-Bridge(1:38-1:44)(Just like the intro, but the last three notes from the intro 
are not struck) 
C|---------------------------------------------------------------------------| 
G|---------------------------------------------------------------------------| 
D#|--------------------------------------------------------------------------| 
a#|--------------------------------------------------------------------------| 
F|---------------------------------------------------------------------------| 
A#|-15-0-0-13-0-0-12-0-0-15-0-0-12-0-0-0-0-0-0---0---0---0-------------------| 

C|---------------------------------------------------------------------------| 
G|---------------------------------------------------------------------------| 
D#|--------------------------------------------------------------------------| 
a#|--------------------------------------------------------------------------| 
F|---------------------------------------------------------------------------| 
A#|-15-0-0-13-0-0-12-0-0-15-0-0-12-0-0-0-0-0-0-------------------------------| 

Bridge 
C|---------------------------------------------------------------------------| 
G|---------------------------------------------------------------------------| 
D#|--------------------------------------------------------------------------| 
a#|-7-0-0-9-0-0-10-0-0-12-0-0-7-0-0-9-0-0-10-0-0-12-0-0----------------------| 
F|---------------------------------------------------------------------------| 
A#|--------------------------------------------------------------------------| 

C|---------------------------------------------------------------------------| 
G|---------------------------------------------------------------------------| 
D#|--------------------------------------------------------------------------| 
a#|-13-12-0-13-12-0---0---0---0---13-12-0-13-12-0---0---0---0----------------| 
F|---------------------------------------------------------------------------| 
A#|--------------------------------------------------------------------------| 

C|---------------------------------------------------------------------------| 
G|---------------------------------------------------------------------------| 
D#|--------------------------------------------------------------------------| 
a#|-7-0-0-9-0-0-10-0-0-12-0-0-7-0-0-9-0-0-10-0-0-12-0-0----------------------| 
F|---------------------------------------------------------------------------| 
A#|--------------------------------------------------------------------------| 

C|---------------------------------------------------------------------------| 
G|---------------------------------------------------------------------------| 
D#|--------------------------------------------------------------------------| 
a#|-13-12-0-13-12-0---0---0---0---13-12-0-13-12-0---15---15------------------| 
F|---------------------------------------------------------------------------| 
A#|--------------------------------------------------------------------------| 

PreChorus III 
C|---------------------------------------------------------------------------| 
G|---------------------------------------------------------------------------| 
D#|--------------------------------------------------------------------------| 
a#|--------------------------------------------------------------------------| 
F|---------------------------------------------------------------------------| 
A#|-15-0-0-13-0-0-12-0-0-15-0-0-12-0-0-0-0-0-0---0---15-13-12----------------| 

Chorus III(Same as Chorus II 

Outroduction(Same as Intro) 

************************************ 

| /   slide up 
| \   slide down 
| x   Mute note 

************************************ 
		  

See also:

tabs 12-Stones - My life tabs 12-Stones - Crash tabs Jars of Clay - Overjoyed tabs Jeremy Camp - I Still Believe tabs Kutless - one touch tabs White Cross - Behold
e-chords

Other versions:

tabs Red - Love Will Leave A Mark
auto scroll beats size up size down change color hide chords drawings
tab show chords e-chords YouTube Clip e-chords hide all tabs e-chords go to top tab

share