Red Sun Rising

Stealing Life

Red Sun Rising

tabs

by  GUSTSILVA

save to print version add songbook text version e-mail correct tuner
chordsukulelecavacokeyboardtabbassdrumsharmonicaflute Guitar Pro
close

there isn't a video lesson for this song

chords

Stealing Life

	  		
Intro + First Verse 

Guitar 1 - repeated until the Chorus hits 

e|-----------------------------------------------------------| 
B|-----------------------------------------------------------| 
G|------------------------------------1---------------3------| 
D|-------6-------------6-4---6----1-----1---1-----3-----3----| 
A|---6-----6---6---6-------6----2---2-----2---2/4---4-----4--| 
D|-6---6-----6---4---4---------------------------------------| 

Guitar 2 - comes in during the verse (is also played during the second verse) 

e|-----------------------------------------------------------| 
B|-16----16-14----14-12----12-11-12-12/14\12-----------------| 
G|----13-------13-------13-------------------13--------------| 
D|-----------------------------------------------------------| 
A|-----------------------------------------------------------| 
D|-----------------------------------------------------------| 



************************************ 

| /  Slide up 
| \  Slide down 

************************************ 
		  

See also:

tabs Deep Purple - Smoke On The Water (Intro + solo 01) tabs Deep Purple - Perfect Strangers tabs Deep Purple - Smoke on the water (ver. 3) tabs Ira! - Eu Quero Sempre Mais (ver. 2) tabs Deep Purple - Fireball (ver. 2) tabs Deep Purple - Squished Bananas Dave&cammey
e-chords

Other versions:

tabs Red Sun Rising - Stealing Life
auto scroll beats size up size down change color hide chords drawings
tab show chords e-chords YouTube Clip e-chords hide all tabs e-chords go to top tab

share with facebook