Red Sun Rising

Lonely Girl

Red Sun Rising

tabs

by  ABELAMIN

save to print version add songbook text version e-mail correct tuner
chordsukulelecavacokeyboardtabbassdrumsharmonicaflute Guitar Pro
close

there isn't a video lesson for this song

chords

Lonely Girl

	  		 
    G# 
D#|-----------------------------------|-------------------------------| 
A#|-----------------------------------|-------------------------------| 
F#|-12h14---14--12--14--12------12h14-|--------14--12--14--12---------| 
C#|-------------------------14--------|------------------------14-----| 
G#|-----------------------------------|-------------------------------| 
C#|-----------------------------------|-------------------------------| 

    E                                   C# 
D#|-----------------------------------|-------------------------------| 
A#|-----------------------------------|-------------------------------| 
F#|-10------10------10--12------------|-------------------------------| 
C#|-------------12--------------10/12-|--------12--10--12/14----------| 
G#|-----------------------------------|------------------------12-----| 
C#|-----------------------------------|-------------------------------| 

play Main Riff 2x 

 Rhythm guitar adds these chords (shown above bars): 
     G#                E                 C# 
D#|-----------------|-----------------|-------------------| 
A#|--5--------------|--1--------------|--7----------------| 
F#|--6--------------|--2--------------|--7----------------| 
C#|--7--------------|--3--------------|--7----------------| 
G#|--0--------------|-----------------|--5----------------| 
C#|-----------------|-----------------|-------------------| 



Verse 

    Guitar 1 
D#|----------0-----------0---|----------0-----------0---|----------0-----------0---| 
A#|-0-----0-----0-----0------|-0-----0-----0-----0------|-0-----0-----0-----0------| 
F#|-6-----------8------------|-6-----------8------------|-6-----------8------------| 
C#|--------------------------|--------------------------|--------------------------| 
G#|--------------------------|--------------------------|--------------------------| 
C#|--------------------------|--------------------------|--------------------------| 
 | 
  | Guitar 2 - with muting throughout 
D#|--------------------------|--------------------------|--------------------------| 
A#|--------------------------|--------------------------|--------------------------| 
F#|-2--2--2-----4--4--4------|-2--2--2-----4--4--4------|-2--2--2-----4--4--4------| 
C#|--------------------------|--------------------------|--------------------------| 
G#|--------------------------|--------------------------|--------------------------| 
C#|--------------------------|--------------------------|--------------------------| 


    Guitar 1 ending 
D#|----------0-----------0---| 
A#|-0-----0-----0-----0------| 
F#|-------------11-----------| 
C#|-7------------------------| 
G#|--------------------------| 
C#|--------------------------| 
  | 
  | Guitar 2 ending 
D#|--------------------------| 
A#|--------------------------| 
F#|--------------------------| 
C#|-3--3--3-----0--0--0------| 
G#|--------------------------| 
C#|--------------------------| 



PreChorus 

    Guitar 1 (strum chords as needed) 
D#|--0-------------|--0------------|--0-------------|--0--------------| 
A#|--1-------------|--1------------|--5-------------|--5--------------| 
F#|--2-------------|--2------------|--6-------------|--6--------------| 
C#|--3-------------|--3------------|--7-------------|--7--------------| 
G#|----------------|---------------|----------------|-----------------| 
C#|----------------|---------------|----------------|-----------------| 
  | 
  | Guitar 2 
D#|----------------|---------------|----------------|-----------------| 
A#|----------------|---------------|----------------|-----------------| 
F#|--12h14~--------|---------------|----------------|-----------------| 
C#|----------------|---------------|--12h14~~-------|-----------------| 
G#|----------------|---------------|----------------|-----------------| 
C#|----------------|---------------|----------------|-----------------| 


    Guitar 1 continued 
D#|--0-------------|--0------------|----------------|-----------------| 
A#|--1-------------|--1------------|--7-------------|--7--------------| 
F#|--2-------------|--2------------|--7-------------|--7--------------| 
C#|--3-------------|--3------------|--7-------------|--7--------------| 
G#|----------------|---------------|--5-------------|--5--------------| 
C#|----------------|---------------|----------------|-----------------| 
  | 
  | Guitar 2 
D#|----------------|---------------|----------------|-----------------| 
A#|----------------|---------------|----------------|-----------------| 
F#|--12h14~--------|---------------|-------------11-|-12~----------14-| 
C#|----------------|---------------|--12h14~~-------|-----------------| 
G#|----------------|---------------|----------------|-----------------| 
C#|----------------|---------------|----------------|-----------------| 



Chorus 

    Guitar 1 
D#|----------------------------------|-----------------------------------| 
A#|----------------------------------|-----------------------------------| 
F#|-2---------2---------2--2---------|-----------------------------------| 
C#|-2---------2---------2--2---------|-3--------3-----------3--3---------| 
G#|-0---------0---------0--0---------|-3--------3-----------3--3---------| 
C#|----------------------------------|-3--------3-----------3--3---------| 
  | 
  | Guitar 2        * is first time only 
D#|----------------------------------|-----------------------------------| 
A#|------------12-12br13-12----------|-----------12-12br13-12------------| 
F#|-14--13*-14---------------14------|-14-----14-------------------------| 
C#|----------------------------------|------------------------------14---| 
G#|----------------------------------|-----------------------------------| 
C#|----------------------------------|-----------------------------------| 


    Guitar 1 
D#|----------------------------------|-----------------------------------| 
A#|----------------------------------|-----------------------------------| 
F#|----------------------------------|--------------------5----5--5------| 
C#|-0--------0--------0--0-----------|-3--------3---------0----0--0------| 
G#|-0--------0--------0--0-----------|-3--------3---------0----0--0------| 
C#|-0--------0--------0--0-----------|-3--------3---------0----0--0------| 
  | 
  | Guitar 2 
D#|----------------------------------|-----------------------------------| 
A#|----------------------------------|-----------------------------------| 
F#|------------------------------12--|-12~---------------------------14--| 
C#|--(14)----------------------------|-----------------------------------| 
G#|----------------------------------|-----------------------------------| 
C#|----------------------------------|-----------------------------------| 

play Chorus 2x 


Chorus Ending 

    Guitar 1                                                                 >       >    >    > 
D#|-0-----0-----0--0--0--0--|-0-----0-----0--0--0-----|-PM*****************-----|------------------------| 
A#|-1-----1-----1--1--1--1--|-1-----1-----1--1--1-----|-------------------------|------------------------| 
F#|-2-----2-----2--2--2--2--|-2-----2-----2--2--2-----|-2--2--2--2--2--2--2--2--|----2----2----2--2--2---| 
C#|-3-----3-----3--3--3--3--|-3-----3-----3--3--3-----|-2--2--2--2--2--2--2--2--|----2----2----2--2--2---| 
G#|-------------------------|-------------------------|-0--0--0--0--0--0--0--0--|----0----0----0--0--0---| 
C#|-------------------------|-------------------------|-------------------------|------------------------| 
  | 
  | Guitar 2                                                    play this bar 2x 
D#|-------------------------|-------------------------|-------------------------| 
A#|-------------------------|-------------------------|-------------------------| 
F#|--14~~~------------------|-------------------------|-------------------------| 
C#|-------------------------|-------------------------|-5h7---7--5--7--5--------| 
G#|-------------------------|-------------------------|-------------------7-----| 
C#|-------------------------|-------------------------|-------------------------| 


    Guitar 1 
D#|-0-----0-----0--0--0--0--|-0-----0-----0--0--0-----|-0-----0s-----0-----0s---|-0-----0s-----0----0--0--| 
A#|-1-----1-----1--1--1--1--|-1-----1-----1--1--1-----|-3-----3s-----3-----3s---|-3-----3s-----3----3--3--| 
F#|-2-----2-----2--2--2--2--|-2-----2-----2--2--2-----|-2-----2s-----2-----2s---|-2-----2s-----2----2--2--| 
C#|-3-----3-----3--3--3--3--|-3-----3-----3--3--3-----|-0-----0s-----0-----0s---|-0-----0s-----0----0--0--| 
G#|-------------------------|-------------------------|-0-----0s-----0-----0s---|-0-----0s-----0----0--0--| 
C#|-------------------------|-------------------------|-0-----0s-----0-----0s---|-0-----0s-----0----0--0--| 
  | 
  | Guitar 2 
D#|-------------------------|-------------------------|-------------------------|-------------------------| 
A#|-------------------------|-------------------------|-------------------------|-------------------------| 
F#|--14~~~------------------|-------------------------|-------------------------|-12~---------------------| 
C#|-------------------------|-------------------------|-14~---------------------|-------------------------| 
G#|-------------------------|-------------------------|-------------------------|-------------------------| 
C#|-------------------------|-------------------------|-------------------------|-------------------------| 


    Guitar 1  
D#|-------------------------|-------------------------------| 
A#|-------------------------|-------------------------------| 
F#|-------------------------|-------------------------------| 
C#|--3-----3-----3--3----5--|-------------------------------| 
G#|--3-----3-----3--3----5--|-------------------------------| 
C#|--3-----3-----3--3----5--|-------------------------------| 
  | 
  | Guitar 2 
D#|-------------------------|-------------------------------| 
A#|-------------------------|-------------------------------| 
F#|--12h14~-----------------|-------------------------------| 
C#|-------------------------|-------------------------------| 
G#|-------------------------|-------------------------------| 
C#|-------------------------|-------------------------------| 



Play Main Riff Again 


verse 2 

    Guitar 1 
D#|----------0-----------0---|----------0-----------0---|----------0-----------0---| 
A#|-0-----0-----0-----0------|-0-----0-----0-----0------|-0-----0-----0-----0------| 
F#|-6-----------8------------|-6-----------8------------|-6-----------8------------| 
C#|--------------------------|--------------------------|--------------------------| 
G#|--------------------------|--------------------------|--------------------------| 
C#|--------------------------|--------------------------|--------------------------| 
 | 
  | Guitar 2 - with muting throughout 
D#|--------------------------|--------------------------|--------------------------| 
A#|--------------------------|--------------------------|--------------------------| 
F#|-2--2--2-----4--4--4------|-2--2--2-----4--4--4------|-2--2--2-----4--4--4------| 
C#|--------------------------|--------------------------|--------------------------| 
G#|--------------------------|--------------------------|--------------------------| 
C#|--------------------------|--------------------------|--------------------------| 


    Guitar 1 ending 
D#|----------0-----------0---| 
A#|-0-----0-----0-----0------| 
F#|-------------11-----------| 
C#|-7------------------------|  play verse 2 2x 
G#|--------------------------| 
C#|--------------------------| 
  | 
  | Guitar 2 ending 
D#|--------------------------| 
A#|--------------------------| 
F#|--------------------------| 
C#|-3--3--3-----0--0--0------| 
G#|--------------------------| 
C#|--------------------------| 



PreChorus 2 

    Guitar 1 (strum chords as needed) 
D#|--0-------------|--0------------|----------------|-----------------| 
A#|--1-------------|--1------------|--7-------------|--7--------------| 
F#|--2-------------|--2------------|--7-------------|--7--------------| 
C#|--3-------------|--3------------|--7-------------|--7--------------| 
G#|----------------|---------------|--5-------------|--5--------------| 
C#|----------------|---------------|----------------|-----------------| 
  | 
  | Guitar 2 
D#|----------------|---------------|----------------|-----------------| 
A#|----------------|---------------|----------------|-----------------| 
F#|--12h14~--------|---------------|-------------11-|-12~-------12h14-| 
C#|----------------|---------------|--12h14~~-------|-----------------| 
G#|----------------|---------------|----------------|-----------------| 
C#|----------------|---------------|----------------|-----------------| 



Chorus 2 

    Guitar 1 
D#|----------------------------------|-----------------------------------| 
A#|----------------------------------|-----------------------------------| 
F#|-2---------2---------2--2---------|-----------------------------------| 
C#|-2---------2---------2--2---------|-3--------3-----------3--3---------| 
G#|-0---------0---------0--0---------|-3--------3-----------3--3---------| 
C#|----------------------------------|-3--------3-----------3--3---------| 
  | 
  | Guitar 2 
D#|----------------------------------|-----------------------------------| 
A#|------------12-12br13-12----------|-----------12-12br13-12------------| 
F#|-14------14---------------14------|-14-----14-------------------------| 
C#|----------------------------------|------------------------------14---| 
G#|----------------------------------|-----------------------------------| 
C#|----------------------------------|-----------------------------------| 


    Guitar 1 
D#|----------------------------------|-----------------------------------| 
A#|----------------------------------|-----------------------------------| 
F#|----------------------------------|-5--------5---------5----5--5------| 
C#|-0--------0--------0--0-----------|-3--------3---------0----0--0------| 
G#|-0--------0--------0--0-----------|-3--------3---------0----0--0------| 
C#|-0--------0--------0--0-----------|-3--------3---------0----0--0------| 
  | 
  | Guitar 2 
D#|----------------------------------|-----------------------------------| 
A#|----------------------------------|-----------------------------------| 
F#|------------------------------12--|-12~---------------------------14--| 
C#|--(14)----------------------------|-----------------------------------| 
G#|----------------------------------|-----------------------------------| 
C#|----------------------------------|-----------------------------------| 

play Chorus 2x 


Chorus 2 Ending 

    Guitar 1                                                                 >       >    >    > 
D#|-0-----0-----0--0--0--0--|-0-----0-----0--0--0-----|-PM*****************-----|------------------------| 
A#|-1-----1-----1--1--1--1--|-1-----1-----1--1--1-----|-------------------------|------------------------| 
F#|-2-----2-----2--2--2--2--|-2-----2-----2--2--2-----|-2--2--2--2--2--2--2--2--|----2----2----2--2--2---| 
C#|-3-----3-----3--3--3--3--|-3-----3-----3--3--3-----|-2--2--2--2--2--2--2--2--|----2----2----2--2--2---| 
G#|-------------------------|-------------------------|-0--0--0--0--0--0--0--0--|----0----0----0--0--0---| 
C#|-------------------------|-------------------------|-------------------------|------------------------| 
  | 
  | Guitar 2                                                    play this bar 2x 
D#|-------------------------|-------------------------|-------------------------| 
A#|-------------------------|-------------------------|-------------------------| 
F#|--14~~~------------------|-------------------------|-------------------------| 
C#|-------------------------|-------------------------|-5h7---7--5--7--5--------| 
G#|-------------------------|-------------------------|-------------------7-----| 
C#|-------------------------|-------------------------|-------------------------| 


    Guitar 1 
D#|-0-----0-----0--0--0--0--|-0-----0-----0--0--0-----|-0-----0s-----0-----0s---|-0-----0s-----0----0--0--| 
A#|-1-----1-----1--1--1--1--|-1-----1-----1--1--1-----|-3-----3s-----3-----3s---|-3-----3s-----3----3--3--| 
F#|-2-----2-----2--2--2--2--|-2-----2-----2--2--2-----|-2-----2s-----2-----2s---|-2-----2s-----2----2--2--| 
C#|-3-----3-----3--3--3--3--|-3-----3-----3--3--3-----|-0-----0s-----0-----0s---|-0-----0s-----0----0--0--| 
G#|-------------------------|-------------------------|-0-----0s-----0-----0s---|-0-----0s-----0----0--0--| 
C#|-------------------------|-------------------------|-0-----0s-----0-----0s---|-0-----0s-----0----0--0--| 
  | 
  | Guitar 2 
D#|-------------------------|-------------------------|-------------------------|-------------------------| 
A#|-------------------------|-------------------------|-------------------------|-------------------------| 
F#|-/14~~~------------------|-------------------------|-------------------------|-12~---------------------| 
C#|-------------------------|-------------------------|-14~---------------------|-------------------------| 
G#|-------------------------|-------------------------|-------------------------|-------------------------| 
C#|-------------------------|-------------------------|-------------------------|-------------------------| 


    Guitar 1  
D#|-------------------------|-------------------------------| 
A#|-------------------------|-------------------------------| 
F#|-------------------------|-------------------------------| 
C#|--3-----3-----3--3----5--|-------------------------------| 
G#|--3-----3-----3--3----5--|-------------------------------| 
C#|--3-----3-----3--3----5--|-------------------------------| 
  | 
  | Guitar 2 
D#|-------------------------|-------------------------------| 
A#|-------------------------|-------------------------------| 
F#|--12h14~-----------------|-------------------------------| 
C#|-------------------------|-------------------------------| 
G#|-------------------------|-------------------------------| 
C#|-------------------------|-------------------------------| 



Bridge 

    Guitar 2 - notes fade in 
D#|----------------------------|-------------------------------------| 
A#|--13------------------------|----------17----------17-------------| 
F#|--------------14------------|----14----------14-------------------| 
C#|----------------------------|-14----14----------14----------------| 
G#|----------------------------|-------------------------------------| 
C#|----------------------------|-------------------------------------| 


D#|-------------------------|-----------------------------|--------------------|--------------------| 
A#|-------------------------|-----------------------17----|--------------------|--------------------| 
F#|-------------------------|-----------------14----------|--------------------|----17------14------| 
C#|-------------------------|--------------14----14-------|--------------------|--------------------| 
G#|-------------------------|-----------------------------|--------------------|--------------------| 
C#|-------------------------|-----------------------------|--------------------|--------------------| 
   "Moments lost but not the faith in them                         Impunity can overwhelm  

D#|-------------------------|-----------------------------| 
A#|---------17-------17-----|-----------------------------| 
F#|----14-------14----------|-----------------------------| 
C#|-14----14-------14-------|-----------------------------| 
G#|-------------------------|-----------------------------| 
C#|-------------------------|-----------------------------| 
         Moments but not the faith in them 



Solo 

D#|--17-------17-------17--17~~---------|-17-------17-------17-------17--------| 
A#|--20b22----20b22----b22-b22~---------|-20b22----20b22----20b22----20b22-----| 
F#|-------------------------------------|--------------------------------------| 
C#|-------------------------------------|--------------------------------------| 
G#|-------------------------------------|--------------------------------------| 
C#|-------------------------------------|--------------------------------------| 

D#|-20b22---20br22~~--17h20p17--17h20p17---|----------17--------------17-------| 
A#|---------------------------20--------20-|--20b22-----------20b22------------| 
F#|----------------------------------------|-----------------------------------| 
C#|----------------------------------------|-----------------------------------| 
G#|----------------------------------------|-----------------------------------| 
C#|----------------------------------------|-----------------------------------| 

D#|---------17-----------17------------|--------------------------------------------| 
A#|-------------------17-----------17--|-20p17----17h20p17----17h20p17--------17-20-| 
F#|-19b21-------19b21--------19b21-----|-------19----------19----------19-----------| 
C#|------------------------------------|----------------------------------19--------| 
G#|------------------------------------|--------------------------------------------| 
C#|------------------------------------|--------------------------------------------| 

D#|------------------------------------|----------------------------------------| 
A#|-20b22~~----------------------------|----13~---------------------------------| 
F#|----------17-19p17-19b21~-----------|-14------14p12-14-14-14\----------12h14-| 
C#|------------------------------------|-------------------------14--12h14------| 
G#|------------------------------------|----------------------------------------| 
C#|------------------------------------|----------------------------------------| 



Solo Rhythm 

D#|----------------------------------|-----------------------------------| 
A#|----------------------------------|-----------------------------------| 
F#|-2---------2---------2--2---------|-----------------------------------| 
C#|-2---------2---------2--2---------|-3--------3-----------3--3---------| 
G#|-0---------0---------0--0---------|-3--------3-----------3--3---------| 
C#|----------------------------------|-3--------3-----------3--3---------| 

D#|----------------------------------|-----------------------------------| 
A#|----------------------------------|-----------------------------------| 
F#|----------------------------------|-----------------------------------| 
C#|-0--------0--------0--0-----------|-3--------3---------0----0--0------| 
G#|-0--------0--------0--0-----------|-3--------3---------0----0--0------| 
C#|-0--------0--------0--0-----------|-3--------3---------0----0--0------| 

D#|----------------------------------|-----------------------------------| 
A#|----------------------------------|-----------------------------------| 
F#|-2---------2---------2--2---------|-----------------------------------| 
C#|-2---------2---------2--2---------|-3--------3-----------3--3---------| 
G#|-0---------0---------0--0---------|-3--------3-----------3--3---------| 
C#|----------------------------------|-3--------3-----------3--3---------| 

D#|----------------------------------|---------------------------------| 
A#|----------------------------------|---------------------------------| 
F#|----------------------------------|---------------------------------| 
C#|-0--------0--------0--0-----------|-3---3---0---0---3---3---0---0---| 
G#|-0--------0--------0--0-----------|-3---3---0---0---3---3---0---0---| 
C#|-0--------0--------0--0-----------|-3---3---0---0---3---3---0---0---| 



Last Chorus 

    Guitar 1 
D#|----------------------------------|-----------------------------------| 
A#|----------------------------------|-----------------------------------| 
F#|-2---------2---------2--2---------|-----------------------------------| 
C#|-2---------2---------2--2---------|-3--------3-----------3--3---------| 
G#|-0---------0---------0--0---------|-3--------3-----------3--3---------| 
C#|----------------------------------|-3--------3-----------3--3---------| 
  | 
  | Guitar 2 
D#|----------------------------------|-----------------------------------| 
A#|------------12-12br13-12----------|-----------12-12br13-12------------| 
F#|-14------14---------------14------|-14-----14-------------------------| 
C#|----------------------------------|------------------------------14---| 
G#|----------------------------------|-----------------------------------| 
C#|----------------------------------|-----------------------------------| 


    Guitar 1 
D#|----------------------------------|-----------------------------------| 
A#|----------------------------------|-----------------------------------| 
F#|----------------------------------|-5--------5---------5----5--5------| 
C#|-0--------0--------0--0-----------|-3--------3---------0----0--0------| 
G#|-0--------0--------0--0-----------|-3--------3---------0----0--0------| 
C#|-0--------0--------0--0-----------|-3--------3---------0----0--0------| 
  | 
  | Guitar 2 
D#|----------------------------------|-----------------------------------| 
A#|----------------------------------|-----------------------------------| 
F#|------------------------------12--|-12~---------------------------14--| 
C#|--(14)----------------------------|-----------------------------------| 
G#|----------------------------------|-----------------------------------| 
C#|----------------------------------|-----------------------------------| 

play Chorus 2x 


Chorus 2 Ending 

    Guitar 1                                                                 >       >    >    > 
D#|-0-----0-----0--0--0--0--|-0-----0-----0--0--0-----|-PM*****************-----|------------------------| 
A#|-1-----1-----1--1--1--1--|-1-----1-----1--1--1-----|-------------------------|------------------------| 
F#|-2-----2-----2--2--2--2--|-2-----2-----2--2--2-----|-2--2--2--2--2--2--2--2--|----2----2----2--2--2---| 
C#|-3-----3-----3--3--3--3--|-3-----3-----3--3--3-----|-2--2--2--2--2--2--2--2--|----2----2----2--2--2---| 
G#|-------------------------|-------------------------|-0--0--0--0--0--0--0--0--|----0----0----0--0--0---| 
C#|-------------------------|-------------------------|-------------------------|------------------------| 
  | 
  | Guitar 2                                                    play this bar 2x 
D#|-------------------------|-------------------------|-------------------------| 
A#|-------------------------|-------------------------|-------------------------| 
F#|--14~~~------------------|-------------------------|-------------------------| 
C#|-------------------------|-------------------------|-5h7---7--5--7--5--------| 
G#|-------------------------|-------------------------|-------------------7-----| 
C#|-------------------------|-------------------------|-------------------------| 


    Guitar 1 
D#|-0-----0-----0--0--0--0--|-0-----0-----0--0--0-----|-0-----0s-----0-----0s---|-0-----0s-----0----0--0--| 
A#|-1-----1-----1--1--1--1--|-1-----1-----1--1--1-----|-3-----3s-----3-----3s---|-3-----3s-----3----3--3--| 
F#|-2-----2-----2--2--2--2--|-2-----2-----2--2--2-----|-2-----2s-----2-----2s---|-2-----2s-----2----2--2--| 
C#|-3-----3-----3--3--3--3--|-3-----3-----3--3--3-----|-0-----0s-----0-----0s---|-0-----0s-----0----0--0--| 
G#|-------------------------|-------------------------|-0-----0s-----0-----0s---|-0-----0s-----0----0--0--| 
C#|-------------------------|-------------------------|-0-----0s-----0-----0s---|-0-----0s-----0----0--0--| 
  | 
  | Guitar 2 
D#|-------------------------|-------------------------|-------------------------|-------------------------| 
A#|-------------------------|-------------------------|-------------------------|-------------------------| 
F#|-/14~~~------------------|-------------------------|-------------------------|-12~---------------------| 
C#|-------------------------|-------------------------|-14~---------------------|-------------------------| 
G#|-------------------------|-------------------------|-------------------------|-------------------------| 
C#|-------------------------|-------------------------|-------------------------|-------------------------| 


    Guitar 1  
D#|-------------------------|------------------------|-------------------------| 
A#|-------------------------|------------------------|-------------------------| 
F#|-------------------------|------------------------|-------------------------| 
C#|--3-----3-----3--3-------|------------------------|-------------------------| 
G#|--3-----3-----3--3-------|-5--5--5--5--5--5--5--5-|-5--5--5--5--5--5--5--5--| 
C#|--3-----3-----3--3-------|-5--5--5--5--5--5--5--5-|-5--5--5--5--5--5--5--5--| 
  |                           PM *******************   get louder 
  | Guitar 2 
D#|-------------------------|------------------------| 
A#|-------------------------|------------------------| 
F#|--12h14~-----------------|------------------------| 
C#|-------------------------|------------------------| 
G#|-------------------------|------------------------| 
C#|-------------------------|------------------------| 

Outro 

Play main riff again: 

    G# 
D#|-----------------------------------|-------------------------------| 
A#|-----------------------------------|-------------------------------| 
F#|-12h14---14--12--14--12------12h14-|--------14--12--14--12---------| 
C#|-------------------------14--------|------------------------14-----| 
G#|-----------------------------------|-------------------------------| 
C#|-----------------------------------|-------------------------------| 

    E                                   C# 
D#|-----------------------------------|-------------------------------| 
A#|-----------------------------------|-------------------------------| 
F#|-10------10------10--12------------|-------------------------------| 
C#|-------------12--------------10/12-|--------12--10--12/14----------| 
G#|-----------------------------------|------------------------12-----| 
C#|-----------------------------------|-------------------------------| 

    G# 
D#|-----------------------------------|-------------------------------| 
A#|-----------------------------------|-------------------------------| 
F#|-12h14---14--12--14--12------12h14-|--------14--12--14--12---------| 
C#|-------------------------14--------|------------------------14-----| 
G#|-----------------------------------|-------------------------------| 
C#|-----------------------------------|-------------------------------| 

    E                                   C# 
D#|-----------------------------------|-------------------------------| 
A#|-----------------------------------|-------------------------------| 
F#|-10------10------10--12------------|-------------------------------| 
C#|-------------12--------------10/12-|--------12--10--12/14----------| 
G#|-----------------------------------|------------------------12-----| 
C#|-----------------------------------|-------------------------------| 

    G# 
D#|-----------------------------------|-------------------------------|---------| 
A#|-----------------------------------|-------------------------------|---------| 
F#|-12h14---14--12--14--12------12h14-|--------14--12--14--12---------|-10~~----| 
C#|-------------------------14--------|------------------------14-----|---------| 
G#|-----------------------------------|-------------------------------|---------| 
C#|-----------------------------------|-------------------------------|---------| 


************************************ 

| x   Dead note 
| h   Hammer-on 
| p   Pull-off 
| r   Release 
| >   Accented note 
| b   Bend 
| br  Bend release 
| /   Slide up 
| \   Slide down 
| ~   Vibrato 
| PM  Palm mute 

************************************ 
		  

See also:

tabs Deep Purple - Smoke On The Water (Intro + solo 01) tabs Deep Purple - Perfect Strangers tabs Deep Purple - Smoke on the water (ver. 3) tabs Ira! - Eu Quero Sempre Mais (ver. 2) tabs Deep Purple - Fireball (ver. 2) tabs Deep Purple - Squished Bananas Dave&cammey
e-chords

Other versions:

tabs Tonight Alive - Lonely Girl tabs Red Sun Rising - Lonely Girl
auto scroll beats size up size down change color hide chords drawings
tab show chords e-chords YouTube Clip e-chords hide all tabs e-chords go to top tab

share with facebook