Red Hot Chili Peppers

home > Red Hot Chili Pepp...

Whatever We Want Tab

Red Hot Chili Peppers

Difficulty: nolevelnolevel

by victborges

tuner correct add songbook print version text version save to e-mail
chordsukulelecavacokeyboardtabbassdrumsharmonicsflute Guitar Pro
chords

Whatever We Want

  		
Intro: 
E|----------------------------------------------------|R X 4-| 
B|-----------------------------------------------------------|E 
G|-----------------------------------------------------------|P 
D|---6--6---6-x----/9-9-9-9---11-11-11--x-6-6-6-6------------|E 
A|---6--6---6-x----/9-9-9-9---11-11-11--x-6-6-6-6------------|A 
E|---4--4---4-x----/7-7-7-7---9--9--9---x-4-4-4-4------------|T 
* 

este solo fica no fundo (ouša a musica) 
E|----------------------------------------------------|R X 2-| 
B|---4---------4----------5------------6---------------------|E 
G|-------5---------5----------5------------6-----------------|P 
D|----------6----------6----------5------------6-------------|E 
A|-----------------------------------------------------------|A 
E|-----------------------------------------------------------|T 

						     ____________ 
Verse:					            /     \      | 
E|-------------------------------------------|R    |-------|    ---| 
B|-------------------------------------------|E    |---------------|  Play after second 
G|------10-------------------10--------------|P X 5|---------------|    repeat. 
D|---8--10--x-x-x-x-x----8---10--x-x-x-x-x---|E    |--10\----------| 
A|---8--8---x-x-x-x-x----8---8---x-x-x-x-x---|A    |---------------| 
E|---6------x-x-x-x-x----6-------x-x-x-x-x---|T    |---------------| 


Pre-Chorus: 
E|-----------------------------------------------------| 
B|-----------------------------------------------------| 
G|---13---8----------10---13--8------10--x-x-x-x-x-----| 
D|---13---8---13-x---10---13--8--13--10--x-x-x-x-x-----| 
A|---11---6---13-x---8----11--6--13--8---x-x-x-x-x-----| 
E|------------11-x---------------11--------------------| 


Chorus: 
E|---------------------------------------------| X 2 then 
B|---------------------------------------------|progress to 
G|---------------------------------------------|part of chorus 
D|---6--6--x----/9-9-9-9---4-4------x-6-6-6-6--|below.. 
A|---6--6--x----/9-9-9-9---4-4------x-6-6-6-6--| 
E|---4--4--x----/7-7-7-7---2-2------x-4-4-4-4--| 

E|-------------------------------------------------| X 4 
B|-------------------------------------------------| 
G|-------------------------------------------------| 
D|---6--6--x----/9-9-9-9---11-11-11--x-6-6-6-6-----| 
A|---6--6--x----/9-9-9-9---11-11-11--x-6-6-6-6-----| 
E|---4--4--x----/7-7-7-7---9--9--9---x-4-4-4-4-----| 


E|----------------------------------------------------|R X 2-| 
B|---4---------4----------5------------4---------------------|E 
G|-------5---------5----------5------------5-----------------|P 
D|----------6----------6----------5------------6-------------|E 
A|-----------------------------------------------------------|A 
E|-----------------------------------------------------------|T 


Solo: 
E|--------------------------------------------------------| 
B|---------------------------------6-----9----------------| 
G|---8----------------------------------------------------| 
D|---8p6-8b(10)=======(8)r--6---------8-----8---6--8b10r8-| 
A|----------------------------8---------------------------| 
E|--------------------------------------------------------| 

E|--------------------------------------------------------7------------| 
B|-------6--------------------------------6--6-----9-------------------| 
G|-------------------------------------8-----------------------0-------| 
D|-6--8--------6--8b10r8--8-----6--8------------8-----8--------8br-----| 
A|----------8-------------6-----x--------------------------------------| 
E|---------------------------------------------------------------------| 
 
	  

Search Paypal
auto scroll beats size up size down change color hide chords drawings
tab show chords e-chords YouTube Clip e-chords hide all tabs e-chords go to top tab