Red Hot Chili Peppers

home > Red Hot Chili Pepp...

Venice queen live Tab

Red Hot Chili Peppers

Difficulty: ExpertExpert

by europeu

tuner correct add songbook print version text version save to e-mail
chordsukulelecavacokeyboardtabbassdrumsharmonicsflute Guitar Pro
chords

Venice queen live

  		Standard tuning 
Soft tone 
 
Intro: 
G|--------| 
D|--------| 
A|--------| 
E|-0------| 
 
G|-------------|-------------|   
D|-0-0---------|------0------|\ 
A|------2------|-2-2---------| \ 
E|----------0--|----------0--|  \ 
                           Basically just alternating between these 2 paterns 
G|-------------|-------------|  / 
D|-0-0---------|-------------| / 
A|------2------|-2-2--0------|/   
E|----------0--|----------0--| 
 
 
Figure 1: 
 
G|--------|--------|--------|--------| 
D|-2-2-2-2|-2-2-2-2|-2-2-2-2|-0--1---| 
A|--------|--------|--------|--------| 
E|--------|--------|--------|--------| 
 
G|--------|--------|--------|--------| 
D|-2-2-2-2|-2-2-2-2|-2-2-2-2|-0--1---| 
A|--------|--------|--------|--------| 
E|--------|--------|--------|--------| 
 
G|--------|--------|--------|--------| 
D|-2-2-2-2|-2-2-2-2|-2-2-2-2|-0--1---| 
A|--------|--------|--------|--------| 
E|--------|--------|--------|--------| 
 
G|----------|-----------|----------|-----------| 
D|----------|-----------|----------|-----------| 
A|-33--33---|-33--33-3-3|-00--00---|-00--00-0-0| 
E|----------|-----------|----------|-----------| Repeat 
 
Figure 2: 
 
G|------------|-------------|------------|-------------| 
D|-2----2-2-2-|-------------|-2----2-2-2-|-------------| 
A|------------|--3--2--0----|------------|--3--2--0----| 
E|------------|-------------|------------|-------------| 
 
G|------------|-------------|------------|-------------| 
D|-2----2-2-2-|-------------|-2--2--2-2-2|/12-12-12-12-| 
A|------------|--3--2--0----|------------|-------------| 
E|------------|-------------|------------|-------------| 
 
 
Figure 3: 
 
G|---------|---------|---------|---------| 
D|-7-7-7-7-|-5-5-5-5-|---------|---------| 
A|---------|---------|-8-8-8-8-|-5-5-5-5-| repeats until drums stop, then: 
E|---------|---------|---------|---------| 
 
 
 
G|------------------|------------------| 
D|-7-7-7-7--7-7-7-7-|-5-5-5-5--5-5-5-5-| 
A|------------------|------------------| 
E|------------------|------------------| 
 
E|-------------------|------------------------------| 
D|-------------------|------------------------------| 
A|-8-8--8-8-8--0-0-0-|-5-5--5-5-5/15-15-15-15-17-17-|  
E|-------------------|------------------------------| 
 
 
 
G|------------------|---------------------------| 
D|-7-7-7-7--7-7-9-7-|-5-5-5-5------5-----5------| 
A|------------------|----------5-7---5-7---5-7--| 
E|------------------|---------------------------| 
 
E|-------------------------|------------------------------| 
D|-------------------------|------------------------------| 
A|-8-8--8-8-8-8--0-0-0-0-0-|-5-5--5-5-5/15-15-15-15-17-17-|  
E|-------------------------|------------------------------| 
 
 
 
G|------------------|---------------------------| 
D|-7-7-7-7--7-7-9-7-|-5-5-5-5------5-----5------| 
A|------------------|----------5-7---5-7---5-7--| 
E|------------------|---------------------------| 
 
E|-------------------------|------------------------------| 
D|-------------------------|------------------------------| 
A|-8-8--8-8-8-8--8-8-8-8-8-|-5----------------------------|  
E|-------------------------|------------------------------| 
 
 

	  

Search Paypal
auto scroll beats size up size down change color hide chords drawings
tab show chords e-chords YouTube Clip e-chords hide all tabs e-chords go to top tab