Red Hot Chili Peppers

home > Red Hot Chili Pepp...

Under the brigde Tab

Red Hot Chili Peppers

Difficulty: BeginnerBeginner

by nacho%5F63

tuner correct add songbook print version text version save to e-mail
chordsukulelecavacokeyboardtabbassdrumsharmonicsflute Guitar Pro
chords

Under the brigde

  		help: h - hammer 
                                                 p - pick off 
                                                 \ - slide down 
                                                 x - tap mute (the line of x's symbolize 
                                                               the drum replacement sound) 
 
 
    intro 
E  :-------------------------------------------------------------------- 
B  :3------------------3---------------------2-------------------------- 
G  :----------2---------------2-----------------------------------3----- 
D  :-----4-----------4-----------------------------------4------------4- 
A  :5------------------------------4---2-0---------4------------4------- 
E  :---------------------------------------4-2-------------------------- 
 
 
E  :----------------------------------------------------------------------- 
B  :-----------------------3-------------------------3-h5-p3--------------- 
G  :----------------------------------------2------------------2----------- 
D  :------4-----2---0-----------------4----------4--------------------4-\-6 
A  :-------------------2---5----------------5-------------------------5-\-7 
E  :----------------------------------------------------------------------- 
 
 
E  :-------------------------------------------------------------------- 
B  :--------------------------------------------------3--------------3-- 
G  :---------------------------------3-------------------------2-------- 
D  :----6----------------------4---------4----4-2-0-------4--------4---- 
A  :----7-------------4------------4----------------2-5----------------- 
E  :------------2------------------------------------------------------- 
 
 
E  :-------------------------------------------------------------------- 
B  :---------------2-------------------------------------------3-------- 
G  :-2-----------------------------2------------------------------------ 
D  :-----------------------4-----------4----4-----2----0---------------4 
A  :------4--2-0-------4---------4-------------------------2---5-------- 
E  :-------------4-2---------------------------------------------------- 
 
 
E  :-------------------------------------------------------------------- 
B  :------------3-h5-p3------------------------------------------------- 
G  :---2----------------2--------------------------------------------3-- 
D  :--------4---------------------4-\6-6----------------4--------------- 
A  :---5--------------------------5-\7-7-----------4------------4------- 
E  :-----------------------------------------2-------------------------- 
 
 
E  :--------------------------------- 
B  :--------------------------------- 
G  :----------3---------------------- 
D  :-4-------------4----------------- 
A  :--------4----------4-\7---------- 
E  :--------------------------------- 
 
       enter vocals... 
E  :--------7-------------9-----4----5-------------------7----9---5----- 
B  :--9--x--7-------------9-----4----5---------------9---7----9---5----- 
G  :--9--x--8-------------9-----4----6---------------9---8----9---6----- 
D  :--9--x--9-------------9-----6----7---------------9---9----9---7----- 
A  :--7--x--9----9-/11---11-----6----7---------------7---9---11---7----- 
E  :--------7----7-/-9----9-----4----5-------------------7----9---5----- 
  	sometimes i feel like...                     sometimes i feel... 
 
E  :---------------------7-------9------4---5----------------------7------- 
B  :--------------9------7-------9------4---5----------------9-----7------- 
G  :--------------9------8-------9------4---6----------------9-----8------- 
D  :--------------9------9-------9------6---7----------------9-----9------- 
A  :--------------7------9------11------6---7----------------7-----9------- 
E  :---------------------7-------9------4---5----------------------7------- 
		its the city i live in...	             lonely... 
 
E  :-9--------5------------------7------------x------x---x-x-x---x------ 
B  :-9--------5------------------9------------x------x---x-x-x---x------ 
G  :-9--------6------------------8------------x------x---x-x-x---x------ 
D  :-9--------7------------------9------------x------x---x-x-x---x------ 
A  :11--------7------------------7------------x------x---x-x-x---x------ 
E  :-9--------5------------------7------------x------x---x-x-x---x------ 
 
				verse one 
E  :x-------x---x-x-x--x---|--------7-7---------------------------------- 
B  :x-------x---x-x-x--x---|--9-9---7-7---------------------------------- 
G  :x-------x---x-x-x--x---|--9-9---8-8--------8-h10-p8-------8---------- 
D  :x-------x---x-x-x--x---|--9-9---9-9-9--7--------------9-------------- 
A  :x-------x---x-x-x--x---|--7-7---9-9---------------------------9-/11-- 
E  :x-------x---x-x-x--x---|--------7-7---------------------------7-/-9-- 
			      i drive on the street... 
                              she sees my good deeds... 
                                                                    
E  :-9-9----4-4----5----5-h7-p5----------------7-7---------------------- 
B  :-9-9----4-4----5------------5--------9-9---7-7---------------------- 
G  :-9-9----4-4----5---------------------9-9---8-8----------8-h10-p8---- 
D  :--------6-6----7---------------------9-9---9-9---9--7--------------9 
A  :--------6-6----7---------------------7-7---9-9---------------------- 
E  :--------4-4----5---------------------------7-7---------------------- 
					 i walk through the hills... 
					 and i never worry... 
 
E  :------------9--9---5----5--------| 
B  :------------9--9---5------5------| 
G  :-8----------9--9---5--------6----| 2x 
D  :-------------------7-------------| 
A  :----9-/11----------7-------------| 
E  :----7-/-9----------5-------------| 
                           
    
 
    Chorus                                                              
E  :--7--------x------------x----x-x---x--x------9-------------------11- 
B  :--9--------x------------x----x-x---x--x-----10---9-9---9---------12- 
G  :--8--------x------------x----x-x---x--x-----11---9-9---9---------11- 
D  :--9--------x------------x----x-x---x--x-----11---9-9---9------------ 
A  :--7--------x------------x----x-x---x--x------9---7-7---7------------ 
E  :--7--------x------------x----x-x---x--x------9---------------------- 
						   i don't ever wanna... 
                                                                           
E  :11-11---11-11------9------9-----9-------9------------------------11--11 
B  :12-12---12-12-----10-----10----10------10--9---9-------9---------12--12 
G  :11-11---11-11-----11-----11----11------11--9---9-------9---------11--11 
D  :------------------11-----11----11------11--9---9-------9--------------- 
A  :-------------------9------9-----9-------9--7---7-------7--------------- 
E  :-------------------9------9-----9-------9------------------------------ 
			take me to the...  
 
E  :---11-11-11-----9----9---9--|  |----------7-7-----------------------------------9-9-- 
B  :---12-12-12----10---10--10--|  |----9-9---7-7-----------------------------------9-9-- 
G  :---11-11-11----11---11--11--|  |----9-9---8-8--------8-h10-p8-------8-----------9-9-- 
D  :---------------11---11--11--|2x|----9-9---9-9-9--7--------------9-------------------- 
A  :----------------9----9---9--|  |----7-7---9-9---------------------------9-/11-------- 
E  :----------------9----9---9--|  |----------7-7---------------------------7-/-9-------- 
 
 
E  :-----4-4----5----5-h7-p5----------------7-7----------------------------------9--9---5 
B  :-----4-4----5------------5--------9-9---7-7----------------------------------9--9---5 
G  :-----4-4----5---------------------9-9---8-8----------8-h10-p8-----8----------9--9---5 
D  :-----6-6----7---------------------9-9---9-9---9--7--------------9-------------------7 
A  :-----6-6----7---------------------7-7---9-9--------------------------9-/11----------7 
E  :-----4-4----5---------------------------7-7--------------------------7-/-9----------5 
 
                                                                       
E  :----5----| 
B  :------5--| 
G  :--------6| 
D  :---------| 
A  :---------| 
E  :---------| 
 
 
	  verse two 
E  : --|--------7-7-----------------------------------9-9----4-4----5 
B  : --|--9-9---7-7-----------------------------------9-9----4-4----5 
G  : --|--9-9---8-8--------8-h10-p8-------8-----------9-9----4-4----5 
D  : --|--9-9---9-9-9--7--------------9----------------------6-6----7 
A  : --|--7-7---9-9---------------------------9-/11----------6-6----7 
E  : --|--------7-7---------------------------7-/-9----------4-4----5 
	  its hard to believe... 
          at least i have heard... 
                                                                       
E  : ----5-h7-p5----------------7-7----------------------------------9--9---5----5----|  | 
B  : ------------5--------9-9---7-7----------------------------------9--9---5------5--|  | 
G  : ---------------------9-9---8-8----------8-h10-p8-----8----------9--9---5--------6|2x| 
D  : ---------------------9-9---9-9---9--7--------------9-------------------7---------|  | 
A  : ---------------------7-7---9-9--------------------------9-/11----------7---------|  | 
E  : ---------------------------7-7--------------------------7-/-9----------5---------|  | 
			    its hard to believe 
			    lonely as i am... 
   Chorus                                                              
E  :--7--------x------------x----x-x---x--x------9-------------------11- 
B  :--9--------x------------x----x-x---x--x-----10---9-9---9---------12- 
G  :--8--------x------------x----x-x---x--x-----11---9-9---9---------11- 
D  :--9--------x------------x----x-x---x--x-----11---9-9---9------------ 
A  :--7--------x------------x----x-x---x--x------9---7-7---7------------ 
E  :--7--------x------------x----x-x---x--x------9---------------------- 
						   i don't ever wanna... 
                                                                           
E  :11-11---11-11------9------9-----9-------9------------------------11--11 
B  :12-12---12-12-----10-----10----10------10--9---9-------9---------12--12 
G  :11-11---11-11-----11-----11----11------11--9---9-------9---------11--11 
D  :------------------11-----11----11------11--9---9-------9--------------- 
A  :-------------------9------9-----9-------9--7---7-------7--------------- 
E  :-------------------9------9-----9-------9------------------------------ 
			take me to the...  
 
E  :---11-11-11-----9----9---9-----------|  | 
B  :---12-12-12----10---10--10-----------|  | 
G  :---11-11-11----11---11--11-----------|  | 
D  :---------------11---11--11-----------|2x| 
A  :----------------9----9---9-----------|  | 
E  :----------------9----9---9-----------|  | 
 
   outro 
E  :-5-5-5-5-5-3-3-3-1-1-1-1--|  |12-12-12-12-12-12-12-12-12-12-12-12-12-12-12-12| 
B  :-5-5-5-5-5-3-3-3-1-1-1-1--|  |10-10-10-10-10-10-10-10-10-10-10-10-10-10-10-10| 
G  :-6-6-6-6-6-4-4-4-2-2-2-2--|3x|10-10-10-10-10-10-10-10-10-10-10-10-10-10-10-10| 
D  :-7-7-7-7-7-5-5-5-3-3-3-3--|  |10-10-10-10-10-10-10-10-10-10-10-10-10-10-10-10| 
A  :--------------------------|  |-----------------------------------------------| 
E  :--------------------------|  |-----------------------------------------------| 
    the waaaaaay..yeaa..yeaa... 
    hold meeeeee...yeaa yeaa... 
    love meeeeee...yeaa yeaa... 
                                                                         
E  :10-10-10-10-10-10-10-10-10-7-7-7-7-7-7-7||--5-5-5-5-5--3-3-3---|  | 
B  :-9--9--9--9--9--9--9--9--9-8-8-8-8-8-8-8||--5-5-5-5-5--3-3-3---|  | 
G  :-9--9--9--9--9--9--9--9--9-7-7-7-7-7-7-7||--6-6-6-6-6--4-4-4-- |  | 
D  :-9--9--9--9--9--9--9--9--9--------------||--7-7-7-7-7--5-5-5-- |4x| 
A  :----------------------------------------||-------------------- |  | 
E  :----------------------------------------||-------------------- |  | 
                                                under the bridge....    
 
E  :| --------------------|  | 
B  :| --------------------|  | 
G  :| -------5-h6---------|3x| 
D  :| -/5-7-------7--5-7--|  | 
A  :| --------------------|  | 
E  :| --------------------|  | 
 
(this part isnt in the acoustic  
but in the electric,  
i think it sounds fresh) 
 
lyrics 
 
sometimes i feel 
like i dont have a partner 
sometimes i feel 
like my only friend 
is the city i live in 
the city of angels 
lonely as i am 
together we cry 
 
i drive on her streets 
cuz shes my companion 
i walk through her hills 
cuz she knows who i am 
she sees my good deeds 
and she kisses me windy 
i never worry 
now that is a lie 
 
i dont ever want to feel 
like i did that day 
take me to the place i love 
take me all the way 
i dont ever want to feel 
like i did that day 
take me to the place i love 
take me all the waaaaaaaaaaaay 
 
its hard to believe 
that theres nobody out there 
its hard to believe 
that am all alone 
at least i have her love 
the city she loves me 
lonely as i am 
together we cry 
 
i dont ever want to feel 
like i did that day 
take me to the place i love 
take me all that way 
i dont ever want to feel 
like i did that day 
take me to the place i love 
take me all the waaaaaaaaaaaay 
 
under the bridge downtown 
is where i drew some blood 
under the bridge downtown 
i could not get enough 
under the bridge downtown 
forgot about my love 
under the bridge downtown 
i gave my life awaaaaaaaaaaay 
 
 

	  

Search Paypal
auto scroll beats size up size down change color hide chords drawings
tab show chords e-chords YouTube Clip e-chords hide all tabs e-chords go to top tab