Red Hot Chili Peppers

Under The Bridge Acoustic

Red Hot Chili Peppers

tabs Expert expert

by  HOBBITTT

save to print version add songbook text version e-mail correct tuner
chordsukulelecavacokeyboardtabbassdrumsharmonicaflute Guitar Pro
close

there isn't a video lesson for this song

chords

Under The Bridge Acoustic

	  		Tabbed by: Patti 
eMail me: [email protected] 
 
Capo the Second Fret, all tabs are as if there was no capo. 
------------------------------------------------------------------------------ 
-3-------3------------------------------3-----------3h5p3---3/5--------------- 
-----0-----0---------3-------3------------------0---------0-0/0-3-------3----- 
---4---4-----------------4----4-4-0-----------4---4---------4/6-----4-----4--- 
-5-----------4-0-------4---4--------5-4-4/5-5---------------5/7---4---4------- 
-----------------5-4-0------------------------------------------0------------- 
                                                                               
 
------------------------------------------------------------------------------ 
---------3-----------3---------------------------------3-----------3h5p3---3/- 
-----------------0-----0---------3---------3-------------------0---------0-0/- 
-4-0-----------4---4-------------------4-----4-4-0-----------4---4---------4/- 
-----5-4-4/5-5-----------4-0---------4---4---------5-4-4/5-5---------------5/- 
-----------------------------5-4-0-0------------------------------------------ 
                      PRE_VERSE                                    VERSE       
 
--------------------|-4-----------4-5-4---4-5-4-----4-5-4---4-5--|-4-4-x------ 
-5------------------|-5-4-5---5-5-4-5-5-4-4-5-5-4-5-4-5-5-4-4-5-4|-5-5-x-4-4-- 
-0-3-------3---3----|-4-4-4---4-4-4-6-4-4-4-6-4-4-4-4-6-4-4-4-6-4|-4-4-x-4---- 
-6-----4-----4---4--|---4-4h6-6-6-4-7---4-4-7---4-6-4-7---4-4-7-4|-----x-4---- 
-7---4---4---------4|---0-4---4-4-x-7---0-x-7---0-4-x-7---0-x-7-0|-------0---- 
---0----------------|-------------4-------4---------4-------4----|------------ 
                                                                               
 
-----------------------4-5-5h7p5---4-4-x---------------------------5-5-----4-- 
-4-4h5p4---4-----5---5-4-5-------5-5-5-x-4-4-4-4h5p4---4-----5---5-5---5---5-- 
---------6-------4---4-4-6---------4-4-x-4-----------6-------4---4-6-----6-4-- 
-------------4h6---6---4-7-------------x-4---------------4h6---6---7---------- 
-------------0-----0---x-7---------------0---------------0-----0---7---------- 
-----------------------4------------------------------------------------------ 
                                                                               
 
-4-x---------------------------4-5-5h7p5---4-4-x---------------------------5-- 
-5-x-4-4-4-4h5p4---4-----5---5-4-5-------5-5-5-x-4-4-4-4h5p4---4-----5---5-5-- 
-4-x-4-----------6-------4---4-4-6---------4-4-x-4-----------6-------4---4-6-- 
---x-4---------------4h6---6---4-7-------------x-4---------------4h6---6---7-- 
-----0---------------0-----0---x-7---------------0---------------0-----0---7-- 
-------------------------------4---------------------------------------------- 
         Chorus                                                                
 
-5-----|-9--7-7-7-11-11-11-11-9--------x-x-x-x-9--7-7-7-11-11-11-11-9--------- 
---5--4|-10-9-9-9-12-12-12-12-10-10-10-x-x-x-x-10-9-9-9-12-12-12-12-10-10-10-- 
------4|-11-9-9-9-11-11-11-11-11-11-11-x-x-x-x-11-9-9-9-11-11-11-11-11-11-11-- 
------4|-11-9-9-9-------------11-11-11-x-x-x-x-11-9-9-9-------------11-11-11-- 
------0|-9--7-7-7-------------9--------x-x-x-x-9--7-7-7-------------9--------- 
-------|---------------------------------------------------------------------- 
                                                                               
 
-x-x-x-x-9--7-7-7-11-11-11-11-9--------x-x-x-x-9--7-7-7-11-11-11-11-9--------- 
-x-x-x-x-10-9-9-9-12-12-12-12-10-10-10-x-x-x-x-10-9-9-9-12-12-12-12-10-10-10-- 
-x-x-x-x-11-9-9-9-11-11-11-11-11-11-11-x-x-x-x-11-9-9-9-11-11-11-11-11-11-11-- 
-x-x-x-x-11-9-9-9-------------11-11-11-x-x-x-x-11-9-9-9-------------11-11-11-- 
-x-x-x-x-9--7-7-7-------------9--------x-x-x-x-9--7-7-7-------------9--------- 
------------------------------------------------------------------------------ 
      REPEAT VERSE- AFTER VERSE TAKE CAPO OFF, AND PLAY Chorus.                
 
---|-------------------------------------------------------------------------- 
-10|-------------------------------------------------------------------------- 
-11|-------------------------------------------------------------------------- 
-11|-------------------------------------------------------------------------- 
---|-------------------------------------------------------------------------- 
---|-------------------------------------------------------------------------- 
      
 
 
 
 
 
 
     OUTRO               REPEAT UNTIL CHORDS..  C (about 16 times)  G G G G    
--------------------------------------------------------------------3-3-3-3--- 
-----5-5-------3-3-1-1-1------------------------1-------------------3-3-3-3--- 
-----6-6-5-5-5-4-4-2-2-2------------------------0-------------------0-0-0-0--- 
-----7-7-7-7-7-5-5-3-3-3------------------------2-------------------0-0-0-0--- 
---------7-7-7----------------------------------3-------------------2-2-2-2--- 
--------------------------------------------------------------------3-3-3-3--- 
 G G  D D D D D    CONTINUE WITH 1'ST PART OF OUTRO, AT END DO SOMETHING       
 
-3-3--2-2-2-2-2--------------------------------------------------------------- 
-3-3--3-3-3-3-3--------------------------------------------------------------- 
-0-0--2-2-2-2-2--------------------------------------------------------------- 
-0-0-------------------------------------------------------------------------- 
-2-2-------------------------------------------------------------------------- 
-3-3-------------------------------------------------------------------------- 
 LIKE THIS....(BETTER IF PLAYED WITHOUT PICK)                         A        
 
------------------------------------------------------------------------------ 
--------------5-5---------3-3-3-1-1-1-1-5-5-----7p5---3-3-1-1-1h3p1---2------- 
--------------6-6-5-5-5-5-4-4-4-2-2-2-2-6-6-5-5-----7-4-4-2-2-------3-2------- 
--------------7-7-7-7-7-7-5-5-5-3-3-3-3-7-7-7-7-------5-5-3-3---------2------- 
------------------7-7-7-7-------------------7-7-----------------------0------- 
------------------------------------------------------------------------------ 
                                      
 
 

		  

Full key step upFull key step up
Half key step upHalf key step up
Half key step downHalf key step down
Full key step downFull key step down
hide glossary

See also:

tabs Red Hot Chili Peppers - Around The World tabs 311 - The Love Song tabs Red Hot Chili Peppers - Scar Tissue (ver. 4) tabs Audioslave - Cochise tabs Incubus - Wish You Were Here (ver. 1) tabs Red Hot Chili Peppers - Californication
e-chords

Other versions:

tabs Red Hot Chili Peppers - Under The Bridge Acoustic
auto scroll beats size up size down change color hide chords drawings
tab show chords e-chords YouTube Clip e-chords hide all tabs e-chords go to top tab

share