Red Hot Chili Peppers

home > Red Hot Chili Pepp...

The Zephyr Song (ver.2) Solo Tab

Red Hot Chili Peppers

Difficulty: ExpertExpert

by Gelzo

tuner correct add songbook print version text version save to e-mail
chordsukulelecavacokeyboardtabbassdrumsharmonicsflute Guitar Pro
chords

The Zephyr Song (ver.2) Solo

  		e|---------------------------------------------- 
B|--------10~~~-----8~~~-----1~~~-----3~~~------ 
G|------7--------6--------2--------4------------ 
D|----9--------7--------3--------5-------------- 
A|---------------------------------------------- 
E|---------------------------------------------- 
 
e|---------------------------------------------- 
B|--------7~~~-----5~~~-----2~~~-----3~~~------- 
G|------7--------6--------3--------4------------ 
D|----9--------7--------4--------5-------------- 
A|---------------------------------------------- 
E|---------------------------------------------- 
 
Verse : 
     Can I get your... 
e|----------------------------------------------------------------------- 
B|-------7---10--9-7-------5---8-7-5-------2---5-4-2-------3---6-5-3----- 
G|-----7-----------------6---------------3---------------4--------------- 
D|---9-----9-----------7------7--------4------4--------5------5---------- 
A|----------------------------------------------------------------------- 
E|----------------------------------------------------------------------- 
 
  Take a look its on display... 
e|--------------7----------------------------2-------------------------- 
B|-------7---10---7-------5--8-7-5-----2---5---2-----------3---6-5-3---- 
G|-----7----------------6------------3------------------4--------------- 
D|---9-----9----------7------------4-----4------------5-----5----------- 
A|---------------------------------------------------------------------- 
E|---------------------------------------------------------------------- 
 
  Could you meet your fortune teller... 
e|----------------------------------------------------------------------- 
B|-------7---10--9-7-------5---8-7-5-------2---5-4-2-------3---6-5-3----- 
G|-----7-----------------6---------------3---------------4--------------- 
D|---9-----9-----------7------7--------4------4--------5------5---------- 
A|----------------------------------------------------------------------- 
E|----------------------------------------------------------------------- 
 
 ...its not too strong...							     
e|--------------7----------------------------2-------------------------- 
B|-------7---10---7-------5--8-7-5-----2---5---2-----------3---6-5-3---- 
G|-----7----------------6------------3------------------4--------------- 
D|---9-----9----------7------------4-----4------------5-----5----------- 
A|---------------------------------------------------------------------- 
E|---------------------------------------------------------------------- 
 
Chorus : 
	Fly away on my zephyr.. 
e|--------------------5-----------7-------------- 
B|---9--9--9----------5-----------7-------------- 
G|---9--8--9----------6-----------8--------------   (Repeat) 
D|---9--9--9----------7-----------9--------------      
A|---7--7--7----------7-----------9-------------- 
E|--------------------5-----------7-------------- 
 
 
Back to verse : 
   Fly .....  on .......      
e|----------------------------------------------------------------------- 
B|-------7---10--9-7-------5---8-7-5-------2---5-4-2-------3---6-5-3----- 
G|-----7-----------------6---------------3---------------4--------------- 
D|---9-----9-----------7------7--------4------4--------5------5---------- 
A|----------------------------------------------------------------------- 
E|----------------------------------------------------------------------- 
 
e|----------------------------------------------------------------------- 
B|-------7---10--9-7-------5---8-7-5-------2---5-4-2-------3---6-5-3----- 
G|-----7-----------------6---------------3---------------4--------------- 
D|---9-----9-----------7------7--------4------4--------5------5---------- 
A|----------------------------------------------------------------------- 
E|----------------------------------------------------------------------- 
 
e|--------------7----------------------------2-------------------------- 
B|-------7---10---7-------5--8-7-5-----2---5---2-----------3---6-5-3---- 
G|-----7----------------6------------3------------------4--------------- 
D|---9-----9----------7------------4-----4------------5-----5----------- 
A|---------------------------------------------------------------------- 
E|---------------------------------------------------------------------- 
 
 
Chorus : 
     Fly away on my zephyr ... 
e|--------------------5-----------7-------------- 
B|---9--9--9----------5-----------7-------------- 
G|---9--8--9----------6-----------8--------------   (Repeat) 
D|---9--9--9----------7-----------9--------------      
A|---7--7--7----------7-----------9-------------- 
E|--------------------5-----------7-------------- 
 
Bridge thing : 
     In the water ... 
    (strum) 
e|------------------5-----7-----5-7-------- 
B|---9---9----------5-----7-----5-7-------- 
G|---9---9----------6-----8-----6-8--------     
D|---9---9----------7-----9-----7-9--------      
A|---7---7----------7-----9-----7-9-------- 
E|------------------5-----7-----5-7-------- 
 
Chorus : 
     Fly away on my zephyr ...  place together... 
e|--------------------5-----------7-------------- 
B|---9--9--9----------5-----------7-------------- 
G|---9--8--9----------6-----------8-------------- 
D|---9--9--9----------7-----------9--------------      
A|---7--7--7----------7-----------9-------------- 
E|--------------------5-----------7-------------- 
 
 
 
 
Solo : 
 
e|-15--13--15-15---15--13-15---------------13--11--13-13---13--11-13---------- 
B|--------------------------15b15--13------------------------------13b13--11-- 
G|---------------------------------------------------------------------------- 
D|---------------------------------------------------------------------------- 
A|---------------------------------------------------------------------------- 
E|---------------------------------------------------------------------------- 
 
e|-15--13--15-15---15--13-15---------------13--11--13-13---13--11-13---------- 
B|--------------------------15b15--13------------------------------13b13--11-- 
G|---------------------------------------------------------------------------- 
D|---------------------------------------------------------------------------- 
A|---------------------------------------------------------------------------- 
E|---------------------------------------------------------------------------- 
  
Yeah yeah yeah yeah.....           
    Strum all chords shown  
e|-----------------7----9-------------- 
B|----7--\\--5------7----9-------------- 
G|----x--\\--2------8----10-------------    
D|----9--\\--7------9----11-------------      
A|----9--\\--7------9----11------------- 
E|-----------------7----9-------------- 
	  

Search Paypal
auto scroll beats size up size down change color hide chords drawings
tab show chords e-chords YouTube Clip e-chords hide all tabs e-chords go to top tab