Red Hot Chili Peppers

home > Red Hot Chili Pepp...

The Zephyr Song (solo) Tab

Red Hot Chili Peppers

Difficulty: IntermediateIntermediate

by Marcel%5F

tuner correct add songbook print version text version save to e-mail
chordsukulelecavacokeyboardtabbassdrumsharmonicsflute Guitar Pro
chords

The Zephyr Song (solo)

  		Intro: 
 
e)---------------------------------- 
a)---------------------------------- 
d)--------2---3--------5---2---3---- 
g)2---0----0---2--2-----4---0---2--- 
b)-1---0----0---1--1-----3---0---1-- 
e)--3---1-----------0--------------- 
 
Continua até o solo. 
 
 
Solo: 
 
Fazer 2 vezes 
 
e)-------------------------------------------------------- 
a)-------------------------------------------------------- 
d)-------------------------------------------------------- 
g)-------------------------------------------------------- 
b)---------------------13-12-10-------------------13-12-10 
e)12-10-12-12-12-10-12-----------10-8-10-10-10-12--------- 
 
 
 
Volta o outro solo. 

	  

Search Paypal
auto scroll beats size up size down change color hide chords drawings
tab show chords e-chords YouTube Clip e-chords hide all tabs e-chords go to top tab