Red Hot Chili Peppers

home > Red Hot Chili Pepp...

The Zephyr Song Live At Slane Tab

Red Hot Chili Peppers

Difficulty: ExpertExpert

by rafa+dibob

tuner correct add songbook print version text version save to e-mail
chordsukulelecavacokeyboardtabbassdrumsharmonicsflute Guitar Pro
chords

The Zephyr Song Live At Slane

  		INTRO 
 
-------------------------------------------| 
-------------------------------------------| 
-------12---------10--------4--------5/7-5-| 
----10----------9---------5--------7-------| 
-12----------10---------7--------8---------| 
-------------------------------------------| 
 
------------------------|-------------------| 
------------------------|-------------------| 
-------9---10-12-10p9-9-|------7-9-10-9p7-7-|     
----10------------------|----9--------------| 
-12---------------------|-10----------------| 
------------------------|-------------------| 
 
-----------------|-----------------| 
-----------------|-----------------| 
-----4-5-7-5p4-4-|-----5-7-9-7p5-5-|     
---5-------------|---7-------------| 
-7---------------|-8---------------| 
-----------------|-----------------| 
 
VERSE 1 
 
--------------------|-----------------|---------------|-------------------| 
--------------------|-----------------|---------------|-------------------| 
-------9----12-10-9-|------7---10-9-7-|-----4---7-5-4-|-----5-----9-7-(5)-| 
----10---10---------|----9---9--------|---5---5-------|---7---7/9---------| 
-12-----------------|-10--------------|-7-------------|-8-----------------| 
--------------------|-----------------|---------------|-------------------| 
 
VERSE 2 
 
--------------------|-----------------|---------------|-------------| 
---------------10---|-----------------|---------------|-------------| 
-------9----12----9-|------7---10-9-7-|-----4---7-5-4-|-----5---4-5-| 
----10---10---------|----9---9--------|---5---5-------|---7---7-----| 
-12-----------------|-10--------------|-7-------------|-8-----------| 
--------------------|-----------------|---------------|-------------| 
 
VERSE 3 
 
--------------------|-----------------|---------------|---------------| 
--------------------|-----------------|-----------6---|---------------| 
-------9----12-10-9-|------7---10-9-7-|-----4---7---4-|-----5-----9-7-| 
----10---10---------|----9---9--------|---5---5-------|---7---7/9-----| 
-12-----------------|-10--------------|-7-------------|-8-------------| 
--------------------|-----------------|---------------|---------------| 
 
Chorus 1 
 
-2----------|-3-----0----| 
-3----------|-0-----2----| 
-2----------|-0-----2----| 
-0----------|-0-----2----| 
------------|-2-----0----| 
------------|-3----------| 
 
-2-2-2------|-3-----0----| 
-3-3-3------|-0-----2----| 
-2-2-2------|-0-----2----| 
-0-0-0------|-0-----2----| 
------------|-2-----0----| 
------------|-3----------| 
 
 
BRIDGE 1 
 
-7---7-7-7-7--7---7-7-7-7-|-5---5-5-5-5--7--7--5--7-| 
-5---5-5-5-5--5---5-5-5-5-|-3---3-3-3-3--5--5--3--5-| 
-0---0-0-0-0--0---0-0-0-0-|-4---4-4-4-4--6--6--4--6-| 
-7---7-7-7-7--7---7-7-7-7-|-5---5-5-5-5--7--7--5--7-| 
-7---7-7-7-7--7---7-7-7-7-|-0---0-0-0-0--0--0--0--0-| 
-5---5-5-5-5--5---5-5-5-5-|-3---3-3-3-3--5--5--3--5-| 
 
-7---7-7-7-7--7---7-7-7-7-|-5---5-5-5-5--7--7-| 
-5---5-5-5-5--5---5-5-5-5-|-3---3-3-3-3--5--5-| 
-0---0-0-0-0--0---0-0-0-0-|-4---4-4-4-4--6--6-| (Ends like ?too early?, but John is 
-7---7-7-7-7--7---7-7-7-7-|-5---5-5-5-5--7--7-|  just moving to the solo) 
-7---7-7-7-7--7---7-7-7-7-|-0---0-0-0-0--0--0-| 
-5---5-5-5-5--5---5-5-5-5-|-3---3-3-3-3--5--5-| 
 
 
SOLO 
 
--------------|-------------------------|-------------| 
----------21b-|-------------------------|-------------| 
-17/20--------|-17/20----20-18-18-20/22-|-20-20p17-17-| 
--------------|-------------------------|-------------| 
--------------|-------------------------|-------------| 
--------------|-------------------------|-------------| 
 
-----------------------------|-------------------------|--------------------18/21-| 
-------------21b-20-21b-(20)-|-21p17-17-21p17-17-21p17-17-21p17-17-21p17-17-------| 
-17/20-20-20-----------------|-------------------------|--------------------------| 
-----------------------------|-------------------------|--------------------------| 
-----------------------------|-------------------------|--------------------------| 
-----------------------------|-------------------------|--------------------------| 
 
BRIDGE 2 
 
-7-7-7--7-7-7--7-7-|-5-5-5--5-5-5--5-5-| 
-5-5-5--5-5-5--5-5-|-3-3-3--3-3-3--3-3-| 
-0-0-0--0-0-0--0-0-|-4-4-4--4-4-4--4-4-| 
-7-7-7--7-7-7--7-7-|-5-5-5--5-5-5--5-5-| 
-7-7-7--7-7-7--7-7-|-0-0-0--0-0-0--0-0-| 
-5-5-5--5-5-5--5-5-|-3-3-3--3-3-3--3-3-| 
 
-3-3-3--3-3-3--3-3-|-3-3-3--3-3-3--3-3-| 
-1-1-1--1-1-1--1-1-|-1-1-1--1-1-1--1-1-| 
-2-2-2--2-2-2--2-2-|-0-0-0--0-0-0--0-0-| 
-3-3-3--3-3-3--3-3-|-3-3-3--3-3-3--3-3-| 
-0-0-0--0-0-0--0-0-|-3-3-3--3-3-3--3-3-| 
-1-1-1--1-1-1--1-1-|-1-1-1--1-1-1--1-1-| 
 
Chorus 2 
 
-2---2-2-2-2--2---2-2-2-2-|-3---3-3-3-3--0---0-0-0-0-| 
-3---3-3-3-3--3---3-3-3-3-|-0---0-0-0-0--2---2-2-2-2-| (When you play this Chorus 
-2---2-2-2-2--2---2-2-2-2-|-0---0-0-0-0--2---2-2-2-2-|  for 4th time, do not play 
-0---0-0-0-0--0---0-0-0-0-|-0---0-0-0-0--2---2-2-2-2-|  the three last ?A?s, cause 
--------------------------|-2---2-2-2-2--0---0-0-0-0-|  you have to start the  
--------------------------|-3---3-3-3-3--------------|  ending earlier) 
 
ENDING 
 
-13-12------------------13-12----------------------| 
-------13--13-13-13-13--------15-15---15/13b---/15-| 
---------------------------------------------------| 
---------------------------------------------------| 
---------------------------------------------------| 
---------------------------------------------------| 
 
-------------------15-13-12--------------------------17p13-| 
-15/17/15-13-13b------------13--13/15----13h15-13h15-------| 
-----------------------------------------------------------| 
-----------------------------------------------------------| 
-----------------------------------------------------------| 
-----------------------------------------------------------| 
 
------------------------15-13-12------------------------------------| 
-15/17/15-13-13-13-13b-----------13--13/15--15-15-15-15-15p13---/17-| 
--------------------------------------------------------------------| 
--------------------------------------------------------------------| 
--------------------------------------------------------------------| 
--------------------------------------------------------------------| 
 
----15p0--15-13-12-13----------------------------------------------------------| 
-13-------------------13-13-----15-----------------14-------13-------13---/19~-| 
-----------------------------12----12-12-11--11--11----11h12----11h12-----/18~-| 
-------------------------------------------------------------------------------| 
-------------------------------------------------------------------------------| 
-------------------------------------------------------------------------------| 

	  

Search Paypal
auto scroll beats size up size down change color hide chords drawings
tab show chords e-chords YouTube Clip e-chords hide all tabs e-chords go to top tab