Red Hot Chili Peppers

home > Red Hot Chili Pepp...

The Sunset Sleeps Tab

Red Hot Chili Peppers

Difficulty: nolevelnolevel

by LINEKERS

tuner correct add songbook print version text version save to e-mail
chordsukulelecavacokeyboardtabbassdrumsharmonicsflute Guitar Pro
chords

The Sunset Sleeps

  		

Intro: 

Gtr.1 

|------------------------12-----------12-----------------------| 
|---14/12/14---14/12/14-----14/12/14------14/12----12-12-12-12-| 
|--------------------------------------------------------------| 
|--------------------------------------------------------------| 
|--------------------------------------------------------------| 
|--------------------------------------------------------------| 

Gtr.2 

  Bb       Fmaj7 
|-6--|    |-0--| 
|-6--|    |-1--| 
|-7--| x6 |-2--| x6 
|-8--|    |-3--| 
|-8--|    |-3--| 
|-6--|    |-0--| 


Gtr.1 

|------------------------12-----------12-----------------------------------| 
|---14/12/14---14/12/14-----14/12/14------14/12----9h10p9--9--9h10p9---7---| 
|------------------------------------------------------------------------9-| 
|--------------------------------------------------------------------------| 
|--------------------------------------------------------------------------| 
|--------------------------------------------------------------------------| 

Gtr.2 

  Bb       Fmaj7 
|-6--|     |-0--| 
|-6--|     |-1--| 
|-7--| x6  |-2--| x6 
|-8--|     |-3--| 
|-8--|     |-3--| 
|-6--|     |-0--| 

Verse: 

Just continue to play: 

Bb  Fmaj7  x4 

Then pre-chorus: 

 G#        Amaj       Fmaj7 
|----|    |----|     |-0--| 
|-4--|    |-5--|     |-1--| 
|-5--| x6 |-6--| x6  |-2--| x12 
|-6--|    |-7--|     |-3--| 
|-6--|    |-7--|     |-3--| 
|----|    |----|     |-0--| 
  
Verse again: 

Bb Fmaj7 x2 

Pre-chorus again 

Chorus: 

 A#maj7                 Am11/C6add9 Aadd11 
|--10----------10---------------8----5-----| 
|--------11----------11---------8----6-----| 
|-----10----10----10----10------9----7-----| x3 
|------------------------------------------| 
|------------------------------------------| 
|------------------------------------------| 

End on: 

 Cmaj      E(with some variations) 
|-3--|    |-0--| 
|-5--|    |-0--| 
|-5--| x6 |-1--| x8 
|-5--|    |-2--| 
|-3--|    |-2--| 
|-3--|    |-0--| 

Verse again: 

Gtr.1             \ 
                   \ 
|----------|        \ 
|-14/12/14-|         \ 
|----------|          \ 
|----------|           \ 
|----------|            -> x2 
|----------|           / 
                      / 
Gtr.2                / 
                    / 
Bb Fmaj7           / 

Pre-chorus again 

Chorus again 

Solo 1: 

|-----------------------------------------------12--------------| 
|-12b14r12b14----12b14r12b14r12b14p10-----12/14----14-12--------| 
|--------------------------------------------------------13-----| 
|---------------------------------------------------------------| 
|---------------------------------------------------------------| 
|---------------------------------------------------------------| 

|-12b14r12-10--------------------------------------------------------------| 
|-------------12-----------------------12b14r12b14----12b14r12b14r12b14-10-| 
|----------------11-11-11-11-11-11-13--------------------------------------| 
|--------------------------------------------------------------------------| 
|--------------------------------------------------------------------------| 
|--------------------------------------------------------------------------| 

|-------12-----------14b15-14-12-------------------------------| 
|-12/14----14-12-----------------12----------------------------| 
|----------------13-----------------11-11-11-11-11-11-13-11----| 
|--------------------------------------------------------------| 
|--------------------------------------------------------------| 
|--------------------------------------------------------------| 
	  

Full key step upFull key step up
Half key step upHalf key step up
Half key step downHalf key step down
Full key step downFull key step down
Search Paypal
auto scroll beats size up size down change color hide chords drawings
tab show chords e-chords YouTube Clip e-chords hide all tabs e-chords go to top tab