Red Hot Chili Peppers

Suck My Kiss

Red Hot Chili Peppers

tabs Expert expert

save to print version add songbook text version e-mail correct tuner
chordsukulelecavacokeyboardtabbassdrumsharmonicaflute Guitar Pro
close

there isn't a video lesson for this song

chords

Suck My Kiss

Year: 1991 - Album: Blood Sugar Sex Magik

(Anthony Kiedis/ John Frusciante/ Flea/ Chad Smith)

	  		Intro: (2x)  
G|---------------------------------------------------|  
D|---------------------------------------------------|  
A|-----1---------1---------1-------------------------|  
E|-1-3---1-3-1-3---1-3-1-3---1-3---------------------|  

G|-------------------------7h9-9---------------------|  
D|---------3-3-3-3-5h7-7-7---------------------------|  
A|-3h5-5-5-------------------------------------------|  
E|---------------------------------------------------|  

Yeah, oh yeah  
Yeah, oh yeah  
Hit me  

Part One:  
G|---------------------------------------------------|  
D|---------------------------------------------------|    
A|-------------------------1h3p1---------------------|  (4x)  
E|-1-3-3-1-3-3-1-3-3-1-3-3-------1-------------------|  

G|---------------------------------------------------|  
D|---3---3-3---4-4\----------------------------------|  
A|-----3-----4---------------------------------------|  
E|-1-------------------------------------------------|  

G|---------------------------------------------------|  
D|---------------------------------------------------|  (2x)  
A|-------------------------1h3p1---------------------|  
E|-1-3-3-1-3-3-1-3-3-1-3-3-------1-------------------|  

G|---------------------------------------------------|  
D|---3---3-3---4-7\----------------------------------|  
A|-----3-----4---------------------------------------|  
E|-1-------------------------------------------------|  

G|---------------------------------------------------|  
D|---------------------------------------------------|  
A|-----------------1---------------------------------|  
E|-1-3-3-1-3-3-1-3-----------------------------------|  

Should have been, could have been  
Would have been dead  
If I didn't get a message  
Goin' thru' my head  
I am what I am  
Most motherfuckers  
Don't give a damn  
Aw baby think you can  
Be my girl, I'll be your man  
Someone full of fun  
Do me 'till I'm well done  
Little Bo peep  
Cumin' from my stun gun  
Beware... take care  
Most motherfuckers  
Have a cold ass stare  
Aw baby please be there  
Suck my kiss cut me my share  

Chorus 1  
G|---------------------------------------------------|  
D|-----5---5-----------------------------------------| (3x)  
A|-------5---5---0-0---------------------------------|  
E|-0-0---------0-------------------------------------|  

G|---------------------------------------------------|  
D|---5---5-------------------------------------------|  
A|-----5---5---0-0-----------------------------------|  
E|-0---------0-----0-0-0-x---------------------------|  

Hit me you can't hurt me  
Suck my kiss  
Kiss me please pervert me  
Stick with this  
Is she talking dirty  
Give to me sweet sacred bliss  
Your mouth was made to suck my kiss  

Part 2 - the same bass line of the First Part:  

Look at me can't you see  
All I really want to be  
Is free from a world  
That hurts me  
I need relief  
Do you want me girl  
To be your thief  
Aw baby just for you  
I'd steal anything that you want me to  
K - I - S - S - I - N - G  
Chicka chicka dee  
Do me like a banshee  
Low brow is how  
Swimming in the sound  
Of bow wow wow  
Aw baby do me now  
Do me here I do allow  

Chorus 2:  
G|---------------------------------------------------|  
D|-----5---5-----------------------------------------|  
A|-------5---5---0-0---------------------------------|  
E|-0-0---------0-------------------------------------|  

G|---------------------------------------------------|  
D|---5---5-------------------------------------------|  
A|-----5---5---0-0-----------------------------------|  
E|-0---------0-----0-0-------------------------------|  

G|---------------------------------------------------|  
D|-----5---5-----------------------------------------|  
A|-------5---5---0-0-1-------------------------------|  
E|-0-0---------0-------------------------------------|  

Hit me you can't hurt me  
Suck my kiss  
Kiss me please pervert me  
Stick with this  
Is she gonna curtsy?  
Give to me sweet sacred bliss  
That mouth was made to...  

Solo de Guitar - Intro: (2x) 
G|---------------------------------------------------|  
D|---------------------------------------------------|  
A|-----1---------1---------1-------------------------|  
E|-1-3---1-3-1-3---1-3-1-3---1-3---------------------|  

G|-------------------------7h9-9---------------------|  
D|---------3-3-3-3-5h7-7-7---------------------------|  
A|-3h5-5-5-------------------------------------------|  
E|---------------------------------------------------|  

Part 3 - bass line equal to Part One: 

Should have been, could have been  
Would have been dead  
If I didn't get the message  
Goin' thru my head  
I am what I am  
Most motherfuckers  
Don't give a damn  
Aw baby think you can  
Be my girl, I'll be your man  
Someone full of fun  
Do me 'till I'm well done  
Little Bo peep  
Cummin' from my stun gun  
Beware... take care  
Most motherfuckers  
Have a cold ass stare  
Aw baby please be there  
Suck my kiss cut me my share  

Chorus 3:  
G|---------------------------------------------------|  
D|-----5---5-----------------------------------------|  
A|-------5---5---0-0---------------------------------|  
E|-0-0---------0-------------------------------------|  

G|---------------------------------------------------|  
D|---5---5-------------------------------------------|  
A|-----5---5---0-0-----------------------------------|  
E|-0---------0-----0---------------------------------|  

G|---------------------------------------------------|  
D|-----5---5-----------------------------------------|  
A|-------5---5---0-0---------------------------------|  
E|-0-0---------0-------------------------------------|  

Hit me you can't hurt me  
Suck my kiss  
Kiss me please pervert me  
Stick with this  
Is she talking dirty  
Give to me sweet sacred bliss  
That mouth was made to suck my kiss  

		  

See also:

tabs Red Hot Chili Peppers - Dosed tabs Red Hot Chili Peppers - Otherside (intro) tabs Red Hot Chili Peppers - Around The World (ver. 2) tabs Alesana - Apology tabs Red Hot Chili Peppers - Scar Tissue tabs Red Hot Chili Peppers - Dani California (ver.2)
e-chords

Other versions:

tabs Red Hot Chili Peppers - Suck My Kiss tabs Guitar Hero - Suck My Kiss tabs Red Hot Chili Peppers - Suck My Kiss (ver. 2)
auto scroll beats size up size down change color hide chords drawings
tab show chords e-chords YouTube Clip e-chords hide all tabs e-chords go to top tab

share