Red Hot Chili Peppers

home > Red Hot Chili Pepp...

Sex Rap Tab

Red Hot Chili Peppers

Difficulty: nolevelnolevel

by Piratelo

tuner correct add songbook print version text version save to e-mail
chordsukulelecavacokeyboardtabbassdrumsharmonicsflute Guitar Pro
chords

Sex Rap

  		Riff 

e-------------- 
b-------------- 
g-------------- 
d-------------- 
a-----------3-- 
E--5-5-3-5--0-- 

e------- 
b--7-6-- 
g--5-5-- 
d------- 
a------- 
E------- 

Refrão 

e----------------------- 
b--7-x-x-x-7-x-x-x-7-7-- 
g--5-x-x-x-5-x-x-x-5-5-- 
d----------------------- 
a----------------------- 
E----------------------- 

e----------------------- 
b--7-x-x-x-7-x-x-x-7---- 
g--5-x-x-x-5-x-x-x-5---- 
d----------------------- 
a----------------------- 
E----------------------- 
	  

Search Paypal
auto scroll beats size up size down change color hide chords drawings
tab show chords e-chords YouTube Clip e-chords hide all tabs e-chords go to top tab