Red Hot Chili Peppers

Scar Tissue (ver. 4)

Red Hot Chili Peppers

tabs Easy easy

by  RENANROCK

save to print version add songbook text version e-mail correct tuner
chordsukulelecavacokeyboardtabbassdrumsharmonicaflute Guitar Pro
close

there isn't a video lesson for this song

chords

Scar Tissue (ver. 4)

(Antony Kieds / Flea / John Frusciante / Chad Smith)

	  		 
essa versão está correta e muito legal pra tocar 
Renan Mateus Avanci 
e---1----1----1-1--------------------------------------  
b-----------------1---6---6------6----6-------------  
g--------------------------------------------------  
d-3---3----3------------------------------------------  
a-----------------3---5-------5-----5-----------------  
e--------------------------------------------------  
 
 
 
 
e---1----1----1-1--------------------------------------  
b-----------------1---6---6------6----6----7 7 7------- 
g--------------------------------------------------  
d-3---3----3------------------------------------------  
a-----------------3---5-------5-----5-----------------  
e--------------------------------------------------  
  
 
depois fica em : F,C,D 
 
 
qualquer dúvida entre em contato comigo 
[email protected] 
		  

Full key step upFull key step up
Half key step upHalf key step up
Half key step downHalf key step down
Full key step downFull key step down
hide glossary

See also:

tabs Red Hot Chili Peppers - Around The World (ver. 2) tabs Ben Harper - Amen omen tabs Red Hot Chili Peppers - Aeroplane tabs Red Hot Chili Peppers - Scar Tissue (ver. 3) tabs Ben Harper - Sexual Healing tabs Paramore - Misery Business (tablaturas)
e-chords

Other versions:

tabs Red Hot Chili Peppers - Scar Tissue tabs Red Hot Chili Peppers - Scar Tissue (All Solos) tabs Red Hot Chili Peppers - Scar Tissue (ver. 2) tabs Red Hot Chili Peppers - Scar Tissue (ver. 2) tabs Red Hot Chili Peppers - Scar Tissue (ver. 3) tabs Red Hot Chili Peppers - Scar Tissue (ver. 4)
auto scroll beats size up size down change color hide chords drawings
tab show chords e-chords YouTube Clip e-chords hide all tabs e-chords go to top tab

share