Red Hot Chili Peppers

Scar Tissue (ver. 2)

Red Hot Chili Peppers

tabs Expert expert

by  NETTO89

save to print version add songbook text version e-mail correct tuner
chordsukulelecavacokeyboardtabbassdrumsharmonicaflute Guitar Pro
close

there isn't a video lesson for this song

chords

Scar Tissue (ver. 2)

(Antony Kieds / Flea / John Frusciante / Chad Smith)

	  		 
E|------5---5-5---5----------------------| 
G|------------------5-5/6-6---6---6-6/5--| 
D|---------------------------------------| 
B|--3-----3------------------------------| 
A|------------------3-3/5---5---5--------| 
 
 
E|------5---5-5---5------------------| 
G|------------------5-5/6---8---8-6--| 
D|-----------------------------------| 
B|--3-----3--------------------------| 
A|------------------3-3/5-7---7------| 

		  

See also:

tabs Incubus - Pardon Me tabs Red Hot Chili Peppers - Otherside (ver. 2) tabs Red Hot Chili Peppers - Scar Tissue (ver. 2) tabs Paramore - The Only Exception tabs Ben Harper - Diamonds on inside tabs Red Hot Chili Peppers - Scar Tissue
e-chords

Other versions:

tabs Red Hot Chili Peppers - Scar Tissue tabs Red Hot Chili Peppers - Scar Tissue (All Solos) tabs Red Hot Chili Peppers - Scar Tissue (ver. 2) tabs Red Hot Chili Peppers - Scar Tissue (ver. 2) tabs Red Hot Chili Peppers - Scar Tissue (ver. 3) tabs Red Hot Chili Peppers - Scar Tissue (ver. 4)
auto scroll beats size up size down change color hide chords drawings
tab show chords e-chords YouTube Clip e-chords hide all tabs e-chords go to top tab

share