Red Hot Chili Peppers

Salute To Kareem Tab

Red Hot Chili Peppers

Difficulty: ExpertExpert

by PAULLET3

tuner correct add songbook print version text version save to e-mail
chordsukulelecavacokeyboardtabbassdrumsharmonicsflute Guitar Pro
close

there isn't a video lesson for this song

request
chords

Salute To Kareem

Year: 1989 - Album: Mother's Milk

  		

e|----11----11--11--11-------12-----12--12--12--12-------11----11--11--11--| 
B|----11----11--11--11-------14-----14--14--14--14-------11----11--11--11--| 
G|----11----11--11--11-------12-----12--12--12--12-------11----11--11--11--| 
D|-------------------------------------------------------------------------| 
A|-------------------------------------------------------------------------| 
E|-11---------------------7---------------------------11-------------------| 

e|----15----x--15--15--15--------------------------------------------------| 
B|----14----x--14--14--14--------------------------------------------------| 
G|----12----x--12--12--12--------------------------------------------------| 
D|-------------------------------------------------------------------------| 
A|-------------------------------------------------------------------------| 
E|-7-----------------------------------------------------------------------| 

Riff 1:
 
e|-------------------------------------------------------------------------| 
B|-------------------------------------------------------------------------| 
G|-------------------------------------------------------------------------| 
D|----6-----4-5-6---------------6-----4-5-6-------------6-----4-5-6--------| 
A|----------------4-5-6---------------------4-5-6-------------------4-5-6--| 
E|-4----------------------4--4---------------------4-4---------------------| 

E|-------------------------------------------------------------------------| 
B|-------------------------------------------------------------------------| 
G|-------------------------------------------------------------------------| 
D|-------------------------------------------------------------------------| 
A|-------4---2-3-4---2-3-4---2-3-4-----------------------------------------| 
E|-4--4--------------------------------------------------------------------| 

Riff 2: 
e|-------------------------------------------------------------------------| 
B|-------------------------------------------------------------------------| 
G|-------------------------------------------------------------------------| 
D|----6-----4-5-6----------------8-----6-7-8--------------9-----7-8-9------| 
A|----------------4-5-6----------------------6-7-8--------------------7-8-9| 
E|-4-----------------------6--6---------------------7--7-------------------| 

e|-------------------------------------11--11------------------------------| 
B|-------------------------------------11--11------------------------------| 
G|-------------------------------------11--11------------------------------| 
D|-------11-----9-10-11----------------------------------------------------| 
A|----------------------9-10-11--------------------------------------------| 
E|-9--9-------------------------11-----------------------------------------| 

e|----7--------------------------------------------------------------------| 
B|----8--------------------------------------------------------------------| 
G|-------------------------------------------------------------------------| 
D|-------------------------------------------------------------------------| 
A|-------------------------------------------------------------------------| 
E|-------------------------------------------------------------------------| 

e|-------------------------------------------------------------------------| 
B|-------------------------------------------------------------------------| 
G|-------------------------------------------------------------------------| 
D|------------------10-9-10-9-10-9-----------------------------------------| 
A|----10--10-12-12------------------10-10-12-12-----10--10-12-12-----------| 
E|-12--------------------------------------------12------------------------| 

e|-------------------------------------------------------------------------| 
B|-------------------------------------------------------------------------| 
G|-------------------------------------------------------------------------| 
D|-10-9-10-9-10-9----------------------------------------------------------| 
A|----------------10-10-12-12------10--------------------------------------| 
E|------------------------------12-----10-12-12----12-10-12-10-12-10-------| 

e|-------------------------------------------------------------------------| 
B|--------------------------------------------------------------15---------| 
G|-13-13-13-13-13-13-13-13----------------------------13--14------14-13----| 
D|-------------------------12-12-12-12-12-12-12-12------12--12-------------| 
A|-------------------------------------------------------------------------| 
E|-------------------------------------------------------------------------| 
	  

Search Paypal
auto scroll beats size up size down change color hide chords drawings
tab show chords e-chords YouTube Clip e-chords hide all tabs e-chords go to top tab

share with facebook