Red Hot Chili Peppers

home > Red Hot Chili Pepp...

Ready made Tab

Red Hot Chili Peppers

Difficulty: nolevelnolevel

by europeu

tuner correct add songbook print version text version save to e-mail
chordsukulelecavacokeyboardtabbassdrumsharmonicsflute Guitar Pro
chords

Ready made

  		Tuning: E 
 
 
        
E||--------------------------|--------------------------| 
B||--------------------------|--------------------------| 
G||--------------------------|--------------------------| 
D||--------------5-----------|--------------5-----------| 
A||--5--7--7--5-----7--5--7--|--5--7--7--5-----7--5--7--| 
E||--------------------------|--------------------------| 
 
 
      
--------------------------|--------------------------| 
--------------------------|--------------------------| 
--------------------------|--------------------------| 
--------------5-----------|-----------------------5--| 
--5--7--7--5-----7--5--7--|--------------5--6--7-----| 
--------------------------|--3--5--6--7--------------| 
 
 
    
--------------------------|--------------------------| 
--------------------------|--------------------------| 
--------------------------|--------------------------| 
--------------5-----------|--------------5-----------| 
--5--7--7--5-----7--5--7--|--5--7--7--5-----7--5--7--| 
--------------------------|--------------------------| 
 
 
      
--------------------------|--------------------------| 
--------------------------|--------------------------| 
--------------------------|--------------------------| 
--------------5-----------|-----------------------5--| 
--5--7--7--5-----7--5--7--|--------------5--6--7-----| 
--------------------------|--3--5--6--7--------------| 
 
 
  
    
--------------------------|--------------------------| 
--------------------------|--------------------------| 
--------------------------|--------------------------| 
--------------5-----------|--------------5-----------| 
--5--7--7--5-----7--5--7--|--5--7--7--5-----7--5--7--| 
--------------------------|--------------------------| 
 
 
--------------------------|--------------------------|----------------------| 
--------------------------|--------------------------|----------------------| 
--------------------------|--------------------------|----------------------| 
--------------5-----------|--------------------------|--5--------5-------5--| 
--5--7--7--5-----7--5--7--|--------------5--6--7\----|--5--------5-------5--| 
--------------------------|--3--5--6--7--------------|--3--------3-------3--| 
 
    
------------------------|----------------------|--------------------------| 
------------------------|----------------------|--------------------------| 
------------------------|----------------------|--------------------------| 
--5--5--5----5--5--5----|--7--------7-------7--|-----7--7-----------------| 
--5--5--5----5--5--5----|--7--------7-------7--|-----7--7-----------5--7--| 
--3--3--3----3--3--3----|--5--------5-------5--|-----5--5------5h-7-------| 
 
 
     
--------------------------|-----------------------------| 
--------------------------|-----------------------------| 
--------------------------|-----------------------------| 
-----------------------5--|-----------------------------| 
--7-----7-----5--7--------|--------5--7-----------------| 
-----------7--------------|-----7-----------5h-7--5--3--| 
 
 
     
--------------------------|-----------------------------|----------------------| 
--------------------------|-----------------------------|----------------------| 
--------------------------|-----------------------------|----------------------| 
-----------------------5--|--L--------------------------|--5--------5-------5--| 
--7-----7-----5--7--------|--------5--7-----------------|--5--------5-------5--| 
-----------7--------------|-----7-----------5h-7--5--3--|--3--------3-------3--| 
 
 
     
------------------------|----------------------|--------------------------| 
------------------------|----------------------|--------------------------| 
------------------------|----------------------|--------------------------| 
--5--5--5----5--5--5----|--7--------7-------7--|-----7--7-----------------| 
--5--5--5----5--5--5----|--7--------7-------7--|-----7--7-----------5--7--| 
--3--3--3----3--3--3----|--5--------5-------5--|-----5--5------5h-7-------| 
 
 
   
--------------------------|-----------------------------| 
--------------------------|-----------------------------| 
--------------------------|-----------------------------| 
-----------------------5--|-----------------------------| 
--7-----7-----5--7--------|--------5--7-----------------| 
-----------7--------------|-----7-----------5h-7--5--3--| 
 
 
 
--------------------------|----------------------------------| 
--------------------------|----------------------------------| 
--------------------------|--------------------7-------------| 
-----------------------5--|--------------7S-9-----9S-7--5----| 
--7-----7-----5--7--------|--------5--7----------------------| 
-----------7--------------|-----7----------------------------| 
 
 
      
--------------------------|--------------------------|  Repeat  
--------------------------|--------------------------| 
--------------------------|--------------------------| 
--------------5-----------|--------------5-----------| 
--5--7--7--5-----7--5--7--|--5--7--7--5-----7--5--7--| 
--------------------------|--------------------------| 
 
 
   
--------------------------|--------------------------| 
--------------------------|--------------------------| 
--------------------------|--------------------------| 
--------------5-----------|-----------------------5--| 
--5--7--7--5-----7--5--7--|--------------5--6--7-----| 
--------------------------|--3--5--6--7--------------| 
 
 
  
 
      
-------------------------------------|-------------------------------------| 
-------------------------------------|-------------------------------------| 
------------------12h-13p-12---------|------------------12h-13p-12---------| 
--12--14--14--12-------------12--14--|--12--14--14--12-------------12--14--| 
-------------------------------------|-------------------------------------| 
-------------------------------------|-------------------------------------| 
 
 
       
-------------------------------------|----------------------------------| 
-------------------------------------|----------------------------------| 
------------------12h-13p-12---------|------------------------------12--| 
--12--14--14--12-------------12--14--|------------------12--13--14------| 
-------------------------------------|--10--12--13--14------------------| 
-------------------------------------|----------------------------------| 
 
 
       
---------------------------------------|---------------------------------------| 
---------------------------------------|---------------------------------------| 
------------------14br--14p-12---------|------------------14br--14p-12---------| 
--12--14--14--12---------------12--14--|--12--14--14--12---------------12--14--| 
---------------------------------------|---------------------------------------| 
---------------------------------------|---------------------------------------| 
 
 
    
---------------------------------------|----------------------------------| 
---------------------------------------|----------------------------------| 
------------------14br--14p-12---------|------------------------------12--| 
--12--14--14--12---------------12--14--|------------------12--13--14------| 
---------------------------------------|--10--12--13--14------------------| 
---------------------------------------|----------------------------------| 
 
 
      
--------------------------|--------------------------| 
--------------------------|--------------------------| 
--------------------------|--------------------------| 
--------------5-----------|--------------5-----------| 
--5--7--7--5-----7--5--7--|--5--7--7--5-----7--5--7--| 
--------------------------|--------------------------| 
 
 
      
--------------------------|--------------------------| 
--------------------------|--------------------------| 
--------------------------|--------------------------| 
--------------5-----------|-----------------------5--| 
--5--7--7--5-----7--5--7--|--------------5--6--7-----| 
--------------------------|--3--5--6--7--------------| 
 
 
      
--------------------------|--------------------------| 
--------------------------|--------------------------| 
--------------------------|--------------------------| 
--------------5-----------|--------------5-----------| 
--5--7--7--5-----7--5--7--|--5--7--7--5-----7--5--7--| 
--------------------------|--------------------------| 
 
 
      
--------------------------|---------------------------|----------------------| 
--------------------------|---------------------------|----------------------| 
--------------------------|---------------------------|----------------------| 
--------------5-----------|---------------------------|--5--------5-------5--| 
--5--7--7--5-----7--5--7--|--------------5--6--7\-----|--5--------5-------5--| 
--------------------------|--3--5--6--7---------------|--3--------3-------3--| 
 
 
    
-----------------------|----------------------|--------------------------| 
-----------------------|----------------------|--------------------------| 
-----------------------|----------------------|--------------------------| 
--L--5--5---------5----|--7--------7-------7--|-----7--7-----------------| 
--L--5--5---------5----|--7--------7-------7--|-----7--7-----------5--7--| 
--L--3--3---------3----|--5--------5-------5--|-----5--5------5h-7-------| 
 
 
     
--------------------------|-----------------------------| 
--------------------------|-----------------------------| 
--------------------------|-----------------------------| 
-----------------------5--|-----------------------------| 
--7-----7-----5--7--------|--------5--7-----------------| 
-----------7--------------|-----7-----------5h-7--5--3--| 
 
  
--------------------------|-----------------------------|----------------------| 
--------------------------|-----------------------------|----------------------| 
--------------------------|-----------------------------|----------------------| 
-----------------------5--|-----------------------------|--5--------5-------5--| 
--7-----7-----5--7--------|--------5--7-----------------|--5--------5-------5--| 
-----------7--------------|-----7-----------5h-7--5--3--|--3--------3-------3--| 
 
 
   
-----------------------|----------------------|--------------------------| 
-----------------------|----------------------|--------------------------| 
-----------------------|----------------------|--------------------------| 
--L--5--5---------5----|--7--------7-------7--|-----7--7-----------------| 
--L--5--5---------5----|--7--------7-------7--|-----7--7-----------5--7--| 
--L--3--3---------3----|--5--------5-------5--|-----5--5------5h-7-------| 
 
 
 
--------------------------|-----------------------------| 
--------------------------|-----------------------------| 
--------------------------|-----------------------------| 
-----------------------5--|-----------------------------| 
--7-----7-----5--7--------|--------5--7-----------------| 
-----------7--------------|-----7-----------5h-7--5--3--| 
 
 
                              OH, Clean It Up Johnny!!!                   
  
---------------------------|--------------------------------------------| 
---------------------------|--------------------------------------------| 
---------------------------|--------------------------------------------| 
---------------------------|--------------------------------------------| 
--7-----7-----5--7-----7~--|--------------------------------------------| 
-----------7---------------|--------------------------------------------| 
 
 
--15p-12--------15p-12-15p-12--------15p-12-15p-12--------| 
---------15p-12---------------15p-12---------------15p-12-| 
----------------------------------------------------------| 
----------------------------------------------------------| 
----------------------------------------------------------| 
----------------------------------------------------------| 
 
  
--15p-12--------15p-12-15p-12--------15p-12-15p-12--------| 
---------15p-12---------------15p-12---------------15p-12-| 
----------------------------------------------------------| 
----------------------------------------------------------| 
----------------------------------------------------------| 
----------------------------------------------------------| 
 
  
--15p-12------------------------------------15p-12--------| 
---------15p-12--------15p-12-15p-12---------------15p-12-| 
----------------14p-12---------------14p-12---------------| 
----------------------------------------------------------| 
----------------------------------------------------------| 
----------------------------------------------------------| 
 
  
---------15p-12---------------15p-12----------------------| 
----------------15p-12---------------15p-12--------15p-12-| 
--14p-12---------------14p-12---------------14p-12--------| 
----------------------------------------------------------| 
----------------------------------------------------------| 
----------------------------------------------------------| 
 
  
----------------------------------------------------------| 
--15p-12--------15p-12-15p-12--------15p-12-15p-12--------| 
---------14p-12---------------14p-12---------------14p-12-| 
----------------------------------------------------------| 
----------------------------------------------------------| 
----------------------------------------------------------| 
 
   
----------------------------------------------------------| 
--15p-12-15p-12--------15p-12-15p-12--------15p-12--------| 
----------------14p-12---------------14p-12--------14p-12-| 
----------------------------------------------------------| 
----------------------------------------------------------| 
----------------------------------------------------------| 
 
 
  
-------------------------------|-------------------------------------------| 
--------------------15---------|-------------------------------------------| 
--14b------14b---------14br----|-----(14)p-12--14--12--14b-------14br--12--| 
-------------------------------|-------------------------------------------| 
-------------------------------|-------------------------------------------| 
-------------------------------|-------------------------------------------| 
 
 
   
-----------------------------------|-----------------------------------| 
-----------------------------------|-----------------------------------| 
--14-----12----14b-----14br----12--|--14-----12----14b-----14br----12--| 
-----------------------------------|-----------------------------------| 
-----------------------------------|-----------------------------------| 
-----------------------------------|-----------------------------------| 
 
 
     
------------------------------|---------------------------| 
----------------------0-17br--|----------------x-15-17-15-| 
--14----12~-----------0-------|----------------x----------| 
------------------------------|---------------------------| 
------------------------------|---------------------------| 
------------------------------|---------------------------| 
 
 
---------------------------12----|------------15b------x--19----| 
--15b-----------0-15-17-15-15b~--|----------0----------x--------| 
----------------0----------------|----------0-------------------| 
---------------------------------|------------------------------| 
---------------------------------|------------------------------| 
---------------------------------|------------------------------| 
 
 
                
--18----19----18----19----18---18b--|---------------------| 
------------------------------------|---------------------| 
------------------------------------|---------------------| 
------------------------------------|---------------------| 
------------------------------------|---------------------| 
------------------------------------|---------------------| 
 
 
               
---------------------|---------------------|-------------------| 
---------------------|---------------------|-------------------| 
--7------6------4----|---------------------|-------------------| 
--7------6------4----|---------------------|-------------------| 
--5------4------2----|---------------------|-------------------| 
---------------------|---------------------|-------------------| 
 
 
   
-------------------|---------------------|---------------------| 
-------------------|---------------------|---------------------| 
-------------------|---------------------|---------------------| 
-------------------|--7------6------4----|---------------------| 
-------------------|--7------6------4----|---------------------| 
-------------------|--5------4------2----|---------------------| 
 
 
-------------------|-------------------|---------------------| 
-------------------|-------------------|---------------------| 
-------------------|-------------------|--7------6------4----| 
-------------------|-------------------|--7------6------4----| 
-------------------|-------------------|--5------4------2----| 
-------------------|-------------------|---------------------| 
 
                
---------------------|-------------------|-------------------| 
---------------------|-------------------|-------------------| 
---------------------|-------------------|-------------------| 
---------------------|-------------------|-------------------| 
---------------------|-------------------|-------------------| 
---------------------|-------------------|-------------------| 
 
 
   
---------------------|---------------------------|--------------------------| 
---------------------|------5--5--5--5--5--5--5--|--5--5--5--5--5--5--5--5--| 
---------------------|------6--6--6--6--7--7--7--|--7--7--8--8--8--8--8--8--| 
--7------6------4----|---------------------------|--------------------------| 
--7------6------4----|---------------------------|--------------------------| 
--5------4------2----|---------------------------|--------------------------| 
 
 
      
----------------------------|--------------------------| 
--5--5--5--5----5-----------|--------------------------| 
--8--8--8--8pb--8pb---------|--------------------------| 
----------------------------|--------------5-----------| 
----------------------------|--5--7--7--5-----7--5--7--| 
----------------------------|--------------------------| 
 
 
      
--------------------------|--------------------------| 
--------------------------|--------------------------| 
--------------------------|--------------------------| 
--------------5-----------|--------------5-----------| 
--5--7--7--5-----7--5--7--|--5--7--7--5-----7--5--7--| 
--------------------------|--------------------------| 
 
 
   
--------------------------|--------------------------| 
--------------------------|--------------------------| 
--------------------------|--------------------------| 
-----------------------5--|--------------5-----------| 
--------------5--6--7-----|--5--7--7--5-----7--5--7--| 
--3--5--6--7--------------|--------------------------| 
 
 
     
--------------------------|--------------------------| 
--------------------------|--------------------------| 
--------------------------|--------------------------| 
--------------5-----------|--------------5-----------| 
--5--7--7--5-----7--5--7--|--5--7--7--5-----7--5--7--| 
--------------------------|--------------------------| 
 
 
     
--------------------------|-------------------------------------| 
--------------------------|-------------------------------------| 
--------------------------|------------------12h-13p-12---------| 
-----------------------5--|--12--14--14--12-------------12--14--| 
--------------5--6--7-----|-------------------------------------| 
--3--5--6--7--------------|-------------------------------------| 
 
 
     
-------------------------------------|-------------------------------------| 
-------------------------------------|-------------------------------------| 
------------------12h-13p-12---------|------------------12h-13p-12---------| 
--12--14--14--12-------------12--14--|--12--14--14--12-------------12--14--| 
-------------------------------------|-------------------------------------| 
-------------------------------------|-------------------------------------| 
 
 
    
----------------------------------|---------------------------------------| 
----------------------------------|---------------------------------------| 
------------------------------12--|------------------14br--14p-12---------| 
------------------12--13--14------|--12--14--14--12---------------12--14--| 
--10--12--13--14------------------|---------------------------------------| 
----------------------------------|---------------------------------------| 
 
 
       
---------------------------------------|---------------------------------------| 
---------------------------------------|---------------------------------------| 
------------------14br--14p-12---------|------------------14br--14p-12---------| 
--12--14--14--12---------------12--14--|--12--14--14--12---------------12--14--| 
---------------------------------------|---------------------------------------| 
---------------------------------------|---------------------------------------| 
 
 
  
----------------------------------|--------------------------| 
----------------------------------|--------------------------| 
------------------------------12--|--------------------------| 
------------------12--13--14------|--------------5-----------| 
--10--12--13--14------------------|--5--7--7--5-----7--5--7--| 
----------------------------------|--------------------------| 
 
 
     
--------------------------|--------------------------| 
--------------------------|--------------------------| 
--------------------------|--------------------------| 
--------------5-----------|--------------5-----------| 
--5--7--7--5-----7--5--7--|--5--7--7--5-----7--5--7--| 
--------------------------|--------------------------| 
 
 
  
--------------------------|--------------------------| 
--------------------------|--------------------------| 
--------------------------|--------------------------| 
-----------------------5--|--------------5-----------| 
--------------5--6--7-----|--5--7--7--5-----7--5--7--| 
--3--5--6--7--------------|--------------------------| 
 
 
--------------------------|--------------------------| 
--------------------------|--------------------------| 
--------------------------|--------------------------| 
--------------5-----------|--------------5-----------| 
--5--7--7--5-----7--5--7--|--5--7--7--5-----7--5--7--| 
--------------------------|--------------------------| 
 
 
     
---------------------------|----------------------|-----------------------| 
---------------------------|----------------------|-----------------------| 
---------------------------|----------------------|-----------------------| 
---------------------------|--5--------5-------5--|-----5--5---------5----| 
--------------5--6--7\-----|--5--------5-------5--|-----5--5---------5----| 
--3--5--6--7---------------|--3--------3-------3--|-----3--3---------3----| 
 
 
   
----------------------|--------------------------|--------------------------| 
----------------------|--------------------------|--------------------------| 
----------------------|--------------------------|--------------------------| 
--7--------7-------7--|-----7--7-----------------|-----------------------5--| 
--7--------7-------7--|-----7--7-----------5--7--|--7-----7-----5--7--------| 
--5--------5-------5--|-----5--5------5h-7-------|-----------7--------------| 
 
 
   
-----------------------------|--------------------------| 
-----------------------------|--------------------------| 
-----------------------------|--------------------------| 
-----------------------------|-----------------------5--| 
--------5--7-----------------|--7-----7-----5--7--------| 
-----7-----------5h-7--5--3--|-----------7--------------| 
 
 
       
-----------------------------|----------------------|-----------------------| 
-----------------------------|----------------------|-----------------------| 
-----------------------------|----------------------|-----------------------| 
--L--------------------------|--5--------5-------5--|-----5--5---------5----| 
--------5--7-----------------|--5--------5-------5--|-----5--5---------5----| 
-----7-----------5h-7--5--3--|--3--------3-------3--|-----3--3---------3----| 
 
 
    
----------------------|--------------------------|--------------------------| 
----------------------|--------------------------|--------------------------| 
----------------------|--------------------------|--------------------------| 
--7--------7-------7--|-----7--7-----------------|-----------------------5--| 
--7--------7-------7--|-----7--7-----------5--7--|--7-----7-----5--7--------| 
--5--------5-------5--|-----5--5------5h-7-------|-----------7--------------| 
 
 
          
-----------------------------|---------------------------|--------------------|| 
-----------------------------|---------------------------|--------------------|| 
-----------------------------|---------------------------|--------------------|| 
-----------------------------|---------------------------|--------------------|| 
--------5--7-----------------|--7-----7-----5--7-----7~--|--------------------|| 
-----7-----------5h-7--5--3--|-----------7---------------|--------------------|| 
 
 
 
| s  slide  
| h  hammer-on 
| p  pull-off 
| ~  vibrato 
| b  bend 
| br bend and relase 
| +  harmonic 
| x  Mute note 
 

	  

Full key step upFull key step up
Half key step upHalf key step up
Half key step downHalf key step down
Full key step downFull key step down
Search Paypal
auto scroll beats size up size down change color hide chords drawings
tab show chords e-chords YouTube Clip e-chords hide all tabs e-chords go to top tab