Red Hot Chili Peppers

home > Red Hot Chili Pepp...

Prince Of Sadness Tab

Red Hot Chili Peppers

Difficulty: nolevelnolevel

by europeu

tuner correct add songbook print version text version save to e-mail
chordsukulelecavacokeyboardtabbassdrumsharmonicsflute Guitar Pro
chords

Prince Of Sadness

  		---- FIG. 1 ---- 


e|--------------------------------------------|-------------------| 
B|----x----4--x--4----x----4--x--4----x-------|-------------------| 
G|----x----4--x--4----x----4--x--4----x--4----|----10\8----9\7----| 
D|---------------------------------------4----|-----8\6----7\5----| 
A|--------------------------------------------|-------------------| 
E|--------------------------------------------|-------------------| 


e|--------------------------------------------|-------------------------| 
B|----x----4--x--4----x----4--x--4----x-------|-------------------------| 
G|----x----4--x--4----x----4--x--4----x--4----|-------------------------| 
D|---------------------------------------4----|----7-8-9-10-------------| 
A|--------------------------------------------|-------------10-9-8-7----| 
E|--------------------------------------------|-------------------------| 


e|--------------------------------------------|-------------------| 
B|----x----4--x--4----x----4--x--4----x-------|-------------------| 
G|----x----4--x--4----x----4--x--4----x--4----|----10\8----9\7----| 
D|---------------------------------------4----|-----8\6----7\5----| 
A|--------------------------------------------|-------------------| 
E|--------------------------------------------|-------------------| 


e|--------------------------------------------|-------------------------| 
B|----x----4--x--4----x----4--x--4----x-------|-------------------------| 
G|----x----4--x--4----x----4--x--4----x--4----|-------------------------| 
D|---------------------------------------4----|----7-8-9-10-------------| 
A|--------------------------------------------|-------------10-9-8-7----| 
E|--------------------------------------------|-------------------------| 


e|--------------------------------------------|-------------------| 
B|----x----4--x--4----x----4--x--4----x-------|-------------------| 
G|----x----4--x--4----x----4--x--4----x--4----|----10\8----9\7----| 
D|---------------------------------------4----|-----8\6----7\5----| 
A|--------------------------------------------|-------------------| 
E|--------------------------------------------|-------------------| 


e|--------------------------------------------|-----18b--18b-----------------------------------| 
B|----x----4--x--4----x----4--x--4----x-------|------------------------------------------------| 
G|----x----4--x--4----x----4--x--4----x--4----|-------------------------------------------4----| 
D|---------------------------------------4----|-----------------5--5--5p4h5p4h5-----4----| 
A|--------------------------------------------|------------------------------------------------| 
E|--------------------------------------------|------------------------------------------------| 


e|--------------------------------------------|-------------------| 
B|----x----4--x--4----x----4--x--4----x-------|-------------------| 
G|----x----4--x--4----x----4--x--4----x--4----|----10\8----9\7----| 
D|---------------------------------------4----|-----8\6----7\5----| 
A|--------------------------------------------|-------------------| 
E|--------------------------------------------|-------------------| 


e|--------------------------------------------|-------------------------| 
B|----x----4--x--4----x----4--x--4----x-------|-------------------------| 
G|----x----4--x--4----x----4--x--4----x--4----|-------------------------| 
D|---------------------------------------4----|----7-8-9-10-------------| 
A|--------------------------------------------|-------------10-9-8-7----| 
E|--------------------------------------------|-------------------------| 


e|--------------------------------------------|-------------------| 
B|----x----4--x--4----x----4--x--4----x-------|-------------------| 
G|----x----4--x--4----x----4--x--4----x--4----|----10\8----9\7----| 
D|---------------------------------------4----|-----8\6----7\5----| 
A|--------------------------------------------|-------------------| 
E|--------------------------------------------|-------------------| 


e|--------------------------------------------|-----18b--18b-------------| 
B|----x----4--x--4----x----4--x--4----x-------|--------------------------| 
G|----x----4--x--4----x----4--x--4----x--4----|-----------------4---4----| 
D|---------------------------------------4----|-----------------4---4----| 
A|--------------------------------------------|--------------------------| 
E|--------------------------------------------|--------------------------| 


e|--------------------------------------------|-------------------| 
B|----x----4--x--4----x----4--x--4----x-------|-------------------| 
G|----x----4--x--4----x----4--x--4----x--4----|----10\8----9\7----| 
D|---------------------------------------4----|-----8\6----7\5----| 
A|--------------------------------------------|-------------------| 
E|--------------------------------------------|-------------------| 


e|--------------------------------------------|--------------------| 
B|----x----4--x--4----x----4--x--4----x-------|--------------------| 
G|----x----4--x--4----x----4--x--4----x--4----|--------------------| 
D|---------------------------------------4----|----6--7----8--6----| 
A|--------------------------------------------|--------------------| 
E|--------------------------------------------|--------------------| 







     ---- FIG. 2 ---- 


e|----9--7---------------------------------------|----11--12--13----| 
B|----7--5---------------------------------8b----|----11--12--13----| 
G|------------9--7---8-7-8-6----7--6-------------|------------------| 
D|-----------------------------------------------|------------------| 
A|-----------------------------------------------|------------------| 
E|-----------------------------------------------|------------------| 


e|----9--7------------------------------|----11--12----| 
B|----7--5------------------8b----------|----11--12----| 
G|------------9--7----9b----------9b----|--------------| 
D|--------------------------------------|--------------| 
A|--------------------------------------|--------------| 
E|--------------------------------------|--------------| 


e|----9--7---------------------------|----11--12--13----| 
B|----7--5---------------9b----9b----|----11--12--13----| 
G|------------9--9--9----------------|------------------| 
D|-----------------------------------|------------------| 
A|-----------------------------------|------------------| 
E|-----------------------------------|------------------| 


e|----9----7--------------------------------|----11--12----| 
B|----7----5--------------------------8b----|----11--12----| 
G|--------------9--7--9--7----8--6----------|--------------| 
D|------------------------------------------|--------------| 
A|------------------------------------------|--------------| 
E|------------------------------------------|--------------| 







     ---- FIG. 1' ---- 


e|--------------------------------------------|-------------------| 
B|----x----4--x--4----x----4--x--4----x-------|-------------------| 
G|----x----4--x--4----x----4--x--4----x--4----|----10\8----9\7----| 
D|---------------------------------------4----|-----8\6----7\5----| 
A|--------------------------------------------|-------------------| 
E|--------------------------------------------|-------------------| 


e|--------------------------------------------|-------------------------| 
B|----x----4--x--4----x----4--x--4----x-------|-------------------------| 
G|----x----4--x--4----x----4--x--4----x--4----|-------------------------| 
D|---------------------------------------4----|----7-8-9-10-------------| 
A|--------------------------------------------|-------------10-9-8-7----| 
E|--------------------------------------------|-------------------------| 


e|--------------------------------------------|-------------------| 
B|----x----4--x--4----x----4--x--4----x-------|-------------------| 
G|----x----4--x--4----x----4--x--4----x--4----|----10\8----9\7----| 
D|---------------------------------------4----|-----8\6----7\5----| 
A|--------------------------------------------|-------------------| 
E|--------------------------------------------|-------------------| 


e|--------------------------------------------|-----18b--18b-----------------------------------| 
B|----x----4--x--4----x----4--x--4----x-------|------------------------------------------------| 
G|----x----4--x--4----x----4--x--4----x--4----|-------------------------------------------4----| 
D|---------------------------------------4----|-----------------5--5--5p4h5p4h5-----4----| 
A|--------------------------------------------|------------------------------------------------| 
E|--------------------------------------------|------------------------------------------------| 


e|--------------------------------------------|-------------------| 
B|----x----4--x--4----x----4--x--4----x-------|-------------------| 
G|----x----4--x--4----x----4--x--4----x--4----|----10\8----9\7----| 
D|---------------------------------------4----|-----8\6----7\5----| 
A|--------------------------------------------|-------------------| 
E|--------------------------------------------|-------------------| 


e|--------------------------------------------|--------------------| 
B|----x----4--x--4----x----4--x--4----x-------|--------------------| 
G|----x----4--x--4----x----4--x--4----x--4----|--------------------| 
D|---------------------------------------4----|----6--7----8--6----| 
A|--------------------------------------------|--------------------| 
E|--------------------------------------------|--------------------| 







    ---- FIG. 2' ---- 


e|----9--7---------------------------------------|----11--12--13----| 
B|----7--5---------------------------------8b----|----11--12--13----| 
G|------------9--7---8-7-8-6----7--6-------------|------------------| 
D|-----------------------------------------------|------------------| 
A|-----------------------------------------------|------------------| 
E|-----------------------------------------------|------------------| 


e|----9----7--------------------------------|----11--12----| 
B|----7----5--------------------------8b----|----11--12----| 
G|--------------9--7--9--7----8--6----------|--------------| 
D|------------------------------------------|--------------| 
A|------------------------------------------|--------------| 
E|------------------------------------------|--------------| 


e|-------------------------------------------|----11--12--13----| 
B|-------------------------------------6b----|----11--12--13----| 
G|------------------5--6--7----7--5----------|------------------| 
D|---------4--5--6---------------------------|------------------| 
A|----5--------------------------------------|------------------| 
E|-------------------------------------------|------------------| 


e|--------------------------------|----11--12----| 
B|----13b--13b~~----13b~~---------|----11--12----| 
G|--------------------------------|--------------| 
D|--------------------------------|--------------| 
A|--------------------------------|--------------| 
E|--------------------------------|--------------| 







     ---- BASS PLAYS NOW A SOLO ---- 







     ---- FIG. 1' ---- 


e|--------------------------------------------|-------------------| 
B|----x----4--x--4----x----4--x--4----x-------|-------------------| 
G|----x----4--x--4----x----4--x--4----x--4----|----10\8----9\7----| 
D|---------------------------------------4----|-----8\6----7\5----| 
A|--------------------------------------------|-------------------| 
E|--------------------------------------------|-------------------| 


e|--------------------------------------------|-------------------------| 
B|----x----4--x--4----x----4--x--4----x-------|-------------------------| 
G|----x----4--x--4----x----4--x--4----x--4----|-------------------------| 
D|---------------------------------------4----|----7-8-9-10-------------| 
A|--------------------------------------------|-------------10-9-8-7----| 
E|--------------------------------------------|-------------------------| 


e|--------------------------------------------|-------------------| 
B|----x----4--x--4----x----4--x--4----x-------|-------------------| 
G|----x----4--x--4----x----4--x--4----x--4----|----10\8----9\7----| 
D|---------------------------------------4----|-----8\6----7\5----| 
A|--------------------------------------------|-------------------| 
E|--------------------------------------------|-------------------| 


e|--------------------------------------------|-----18b--18b-----------------------------------| 
B|----x----4--x--4----x----4--x--4----x-------|------------------------------------------------| 
G|----x----4--x--4----x----4--x--4----x--4----|-------------------------------------------4----| 
D|---------------------------------------4----|-----------------5--5--5p4h5p4h5-----4----| 
A|--------------------------------------------|------------------------------------------------| 
E|--------------------------------------------|------------------------------------------------| 


e|--------------------------------------------|-------------------| 
B|----x----4--x--4----x----4--x--4----x-------|-------------------| 
G|----x----4--x--4----x----4--x--4----x--4----|----10\8----9\7----| 
D|---------------------------------------4----|-----8\6----7\5----| 
A|--------------------------------------------|-------------------| 
E|--------------------------------------------|-------------------| 


e|--------------------------------------------|--------------------| 
B|----x----4--x--4----x----4--x--4----x-------|--------------------| 
G|----x----4--x--4----x----4--x--4----x--4----|--------------------| 
D|---------------------------------------4----|----6--7----8--6----| 
A|--------------------------------------------|--------------------| 
E|--------------------------------------------|--------------------| 







     ---- FIG.2'' ---- 


e|----9--7--------------------------------------------------|----11--12--13-| 
B|----7--5--------------------------------------------6b----|----11--12--13-| 
G|------------9--7----8-7-8-6----7--5----6-5-6-5-4----------|---------------| 
D|----------------------------------------------------------|---------------| 
A|----------------------------------------------------------|---------------| 
E|----------------------------------------------------------|---------------| 


e|----9----7--------------------------------------|----11--12----| 
B|----7----5----------9----7--5--4--5----8b~~~----|----11--12----| 
G|--------------9--7--9----7--5--4--5-------------|--------------| 
D|------------------------------------------------|--------------| 
A|------------------------------------------------|--------------| 
E|------------------------------------------------|--------------| 


e|-------------------------------------------------|----11--12--13----| 
B|----15b~----15b--15b--15b--15b~----15b~~~--------|----11--12--13----| 
G|-------------------------------------------------|------------------| 
D|-------------------------------------------------|------------------| 
A|-------------------------------------------------|------------------| 
E|-------------------------------------------------|------------------| 


e|--------------------------------------|----11--12--13----| 
B|----17b----15h17----16--14----15~~----|----11--12--13----| 
G|--------------------------------------|------------------| 
D|--------------------------------------|------------------| 
A|--------------------------------------|------------------| 
E|--------------------------------------|------------------| 


e|----9---7-------------9--7-----------------------|----11--12--13----| 
B|----7---5----9--8--6-----7----9--8--6--6--6~~----|----11--12--13----| 
G|---------------------------------------6--6~~----|------------------| 
D|-------------------------------------------------|------------------| 
A|-------------------------------------------------|------------------| 
E|-------------------------------------------------|------------------| 


e|---------------------------------------------------|----11--12--13----| 
B|---------------------------------------------------|----11--12--13----| 
G|-------------------------------4--5--4--3--6b~~----|------------------| 
D|--------------------4--5--6------------------------|------------------| 
A|---------4--5--6-----------------------------------|------------------| 
E|----4----------------------------------------------|------------------| 


e|-------------------------------------|----11--12--13----| 
B|-------------------------------------|----11--12--13----| 
G|-------------------------------------|------------------| 
D|-----------4h5----6--5--4h5-3--------|------------------| 
A|----4h5------------------------4~----|------------------| 
E|-------------------------------------|------------------| 


e|----9---7----------------------------------|----11--12--13----| 
B|----7---5----9--8--6--8--7--5--5--3b~~-----|----11--12--13----| 
G|-------------------------------------------|------------------| 
D|-------------------------------------------|------------------| 
A|-------------------------------------------|------------------| 
E|-------------------------------------------|------------------| 



e|-------------4-5-4-5-----------------4-5-4-5--6b~~----|----11--12--13----| 
B|---------4-5---------5-4---------4-5------------------|----11--12--13----| 
G|----3-----------------------3-------------------------|------------------| 
D|------------------------------------------------------|------------------| 
A|------------------------------------------------------|------------------| 
E|------------------------------------------------------|------------------| 


e|----6b~------6b~------6b~----|----11--12--13----| 
B|----6b~------6b~------6b~----|----11--12--13----| 
G|-----------------------------|------------------| 
D|-----------------------------|------------------| 
A|-----------------------------|------------------| 
E|-----------------------------|------------------| 


e|----12b~----13b----14--13--12----------| 
B|----12b~-----------------------13b~----| 
G|---------------------------------------| 
D|---------------------------------------| 
A|---------------------------------------| 
E|---------------------------------------| 


e|------------------14b----15b--16--13--12-------------|----11--12----| 
B|----13--14--15----------------------------13--15b----|----11--12----| 
G|-----------------------------------------------------|--------------| 
D|-----------------------------------------------------|--------------| 
A|-----------------------------------------------------|--------------| 
E|-----------------------------------------------------|--------------| 


e|----7b~~----9--6--7b----9--7--7b~~----|----11--12--13----| 
B|--------------------------------------|----11--12--13----| 
G|--------------------------------------|------------------| 
D|--------------------------------------|------------------| 
A|--------------------------------------|------------------| 
E|--------------------------------------|------------------| 


e|------------------------|----11--12--13----| 
B|----15b~~~----13b~~~----|----11--12--13----| 
G|------------------------|------------------| 
D|------------------------|------------------| 
A|------------------------|------------------| 
E|------------------------|------------------| 


e|------------------------------------------------------| 
B|----------------------6--x---5--x---7--x---9b~~~\0----| 
G|----------------------6--x---5--x---7--x---9b~~~\0----| 
D|----------------4--5--4--x---3--x---5--x---9b~~~\0----| 
A|-------4--5--6----------------------------------------| 
E|----4-------------------------------------------------| 



============================================================================ 

| /  slide up 
| \  slide down 
| h  hammer-on 
| p  pull-off 
| ~  vibrato 
| +  harmonic 
| x  Mute note 
|( ) Gohst note 
	  

Search Paypal
auto scroll beats size up size down change color hide chords drawings
tab show chords e-chords YouTube Clip e-chords hide all tabs e-chords go to top tab