Red Hot Chili Peppers

home > Red Hot Chili Pepp...

Pink As Floyd Tab

Red Hot Chili Peppers

Difficulty: nolevelnolevel

by tamamoreira

tuner correct add songbook print version text version save to e-mail
chordsukulelecavacokeyboardtabbassdrumsharmonicsflute Guitar Pro
chords

Pink As Floyd

  		

Tuning: G#  Bb  Gm  Cm  B   C 

|-4-|-6-|-3-|-3-|---|-0-| 
|-4-|-6-|-3-|-4-|-4-|-1-| 
|-5-|-7-|-3-|-5-|-4-|-0-| 
|-6-|-8-|-5-|-5-|-4-|-2-| 
|-6-|-8-|-5-|-3-|-2-|-3-| 
|-4-|-6-|-3-|---|---|---| 



  Intro 

   Gtr 1. Acoustic 

e|------------------------------------6-----| 
B|-4----------4--------6-------6------6-6---| 
G|-5----------5-5----7-7--7----7-7--7-7-7---| 
D|-6-----6----6-6----8-8--8--8-8-8--8-8-8---| 
A|-6---6-6-6--6-6-6--8-8--8--8-8-8--8-8-8---| 
E|-4---4-4-4--4-4-4----6--6--6-6-6--6-6-6---| 

e|--3--3--3-3-3--3-3-3---3--3--3-3-3--3-3---| 
B|--3--3--3-3-3--3-3-3---4--4--4-4-4--4-4---| 
G|--3--3--3-3-3--3-3-3---5--5--5-5-5--5-5-x-| 
D|--5--5--5-5-5--5-5-5---5--5--5-5-5--5-5-x-| 
A|--5--5--5-5-5--5-5-5---3--3--3-3-3--3-3-x-| 
E|--3--3--3-3-3--3-3-3----------------------| 
 |                                          |                                
 | Gtr 2. Electric                          |                                
 |                                          |                                
e|------------------------------------------| 
B|---------------------------4----------3h4-| 
G|---------------------------5--------------| 
D|-------------------------5---------5------| 
A|-------------------5^--3--------3---------| 
E|------------------------------------------| 


  Gtr 2. Electric 

e|--------4-4------4------------------------| 
B|-4------4-4------4----6----------6-----6--| 
G|-5------5-5----5-5----7--7h8p7---7---x-7--| 
D|-6----6-6-6--6-6-6----8--------8-8---x-8--| 
A|-6--6-6-6-6--6-6-6----8--------8-8---x-8--| 
E|-4--4-4-4-4--4-4-4----6----------------6--| 

e|-3--3----3-3--3--------------3-3--3--3--------| 
B|-3--3--3-3-3--3-3-3-----4----4-4--4--4--------| 
G|-3--3--3-3-3--3-3-3---5-5----5-5--5--5--------| 
D|-5--5--5-5-5--5-5-5---5-5----5-5--5--5--------| 
A|-5--5--5-5-5--5-5-5---3-3-3--3-3--3--3--3h5/6-| 
E|-3--3--3-3-3--3-3-3---------------------------| 

 Repeat as chords then  
                                        Shake it for me anyway... 
                                                    
e|--------4-4------4----------------3--3----3-3--3--------------------------| 
B|-4------4-4------4---6--6------6--3--3--3-3-3--3-3-3----4---4-4---4--4--4-| 
G|-5------5-5----5-5---7--7--7-7-7--3--3--3-3-3--3-3-3--5-5---5-5\--4--4--4-| 
D|-6----6-6-6--6-6-6---8--8--8-8-8--5--5--5-5-5--5-5-5--5-5-5-5-5---4--4--4-| 
A|-6--6-6-6-6--6-6-6---8--8--8-8-8--5--5--5-5-5--5-5-5--3-3-3-3-3---2--2--2-| 
E|-4--4-4-4-4--4-4-4---6--6--6-6-6--3--3--3-3-3--3-3-3----------------------| 

e|----4--4--4-4---6--6--6--6-6---0--0--0--0-0---0-0--0--| 
B|-4--4--4--4-4---6--6--6--6-6---1--1--1--1-1---1-1--1--| 
G|-5--5--5--5-5---7--7--7--7-7---0--0--0--0-0---0-0--0--| 
D|-6--6--6--6-6---8--8--8--8-8---2--2--2--2-2---2-2--2--| 
A|-6--6--6--6-6---8--8--8--8-8---3--3--3--3-3---3-3--3--| 
E|-4--4--4--4-4---6--6--6--6-6--------------------------| 

  Verse 

e|---------------------------------------------| 
B|----10---10-----8--8-8\------8------x--------| 
G|----10---10-----8--8-8\--x---8-----(8)-------| 
D|----10---10--------------x---8------8-8------| 
A|-8------------7----------x-/6--8/10-----10\--| 
E|---------------------------------------------| 

e|---------------------------------------------------| 
B|---6----5--4--4---4--3------4--4--------------4----| 
G|---7----6--5--5---5--3------5--5--------------5----| 
D|---8----7--6--6---6--5----5----5----3h5p3-----5----| 
A|---8----7--6--6---6--5--3--------3--------6--3-3/--| 
E|-6----5----4--4---4--3-----------------------------| 


e|--------------------------------------------| 
B|----10---10-----8--x-8----------8-8---------| 
G|----10---10-----8--x-8---x------8-8---------| 
D|----10---10--------x-----x------8-8---------| 
A|-8------------7----------x-8/10-----10\--6--| 
E|--------------------------------------------| 

e|-------------------------------------------------| 
B|---6---5-5--4--4-x-4-4-4---3--4--4-4--4--4-4--4--| 
G|---7---6-6--5--5-x-5-5-5---3--5--5-5--5--5-5--5--| 
D|---8-----7--6--6-x-6-6-6---5--5--5-5--5--5-5--5--| 
A|---8-----7--6------6-6-6---5--3--3-3--3--3-3--3--| 
E|-6----5-----4------4-4-4---3---------------------| 

Chorus 

Both Guitars play chords 

G# Bb Gm Cm 
G# Bb Gm Cm B 
G# Bb C 

  Verse 2 

e|-------------------------------------------------| 
B|----10---10-------8--8-8\-----------------8------| 
G|----10---10-------8--8-8\-----------------8------| 
D|----10---10---------------------8h10p8----8------| 
A|-8------------7-7----------8h10--------10---10\--| 
E|-------------------------------------------------| 

e|-------------------------------------------------| 
B|---6---5--4--4---4-4--3-3--4--4-4--4--4--4-4--4--| 
G|---7---6--5--5---5-5--3-3--5--5-5--5--5--5-5--5--| 
D|---8---7--6--6---6-6--5-5--5--5-5--5--5--5-5--5--| 
A|--8---7---6------6----5----3--3-3--3--3--3-3--3--| 
E|-6---5----4------4----3--------------------------| 

e|------------------------------------------| 
B|----10---10-------8--8-8\-------8------8--| 
G|----10---10-------8--8-8\-------8------8--| 
D|----10---10---------------------8------8--| 
A|-8------------7-7----------8/10---10\-----| 
E|------------------------------------------| 

e|--------------------------------------------------| 
B|----6--5-5--4--4---4-4--3---4--4-4--4--4--4-4--4--| 
G|----7--6-6--5--5---5-5--3---5--5-5--5--5--5-5--5--| 
D|----8--7-7--6--6---6-6--5---5--5-5--5--5--5-5--5--| 
A|---8---7-7--6------6----5---3--3-3--3--3--3-3--3--| 
E|--6----5-5--4------4----3-------------------------| 

  Bridge 

e|---------------------------------------------------------0----------| 
B|-----5-------5-------------0-------0----------------------4---------| 
G|---4---4---4---4----4----3---3---3---3----3-------5----5---5---5----| 
D|--6-----6-6-----6-6---6-4-----4-4-----4-4---4---6---6-6-----6-6-----| 
A|-7-------7-------7-----6-------6-------6-------6-----6-------6---6--| 
E|----------------------------------------------4---------------------| 

  Repeat another twice and strum the G# at the end 

e|-4-----6-----3------------------4----------4---| 
B|-4-----6-----3----------4-------4----------4---| 
G|-5-----7-----3-------------5----5-5h6p5----5---| 
D|-6-----8-----5-------5----------6-------6--6---| 
A|-6-----8-----5-----3------------6--------------| 
E|-4-----6-----3------------------4--------------| 

e|--6-----3---------------------------------| 
B|--6-----3-----------3---------4----4--4---| 
G|--7-----3---3h5p3---3-----------5--4--4---| 
D|--8-----5---------5---(5)\---------4--4---| 
A|--8-----5-------------(5)\--3------2--2---| 
E|--6-----3---------------------------------| 

 
	  

Full key step upFull key step up
Half key step upHalf key step up
Half key step downHalf key step down
Full key step downFull key step down
Search Paypal
auto scroll beats size up size down change color hide chords drawings
tab show chords e-chords YouTube Clip e-chords hide all tabs e-chords go to top tab