Red Hot Chili Peppers

home > Red Hot Chili Pepp...

Pea Tab

Red Hot Chili Peppers

Difficulty: ExpertExpert

tuner correct add songbook print version text version save to e-mail
chordsukulelecavacokeyboardtabbassdrumsharmonicsflute Guitar Pro
chords

Pea

Year: 1995 - Album: One Hot Minute

  		A música é tocada no baixo (caso alguém não perceba)

Riff 1: 
G|---------------------------------------------------|
D|---------------------------------------------------|
A|-----------4--4-4--4-3--3-3--3-1--1-1--1-----------|
E|-1--1-1--1-----------------------------------------|
o Riff um é tocado 4x antes do refrão.


G|---------------------------------------------------|
D|---------------------------------------------------|
A|-------------1--1-1--1-----------------------------|
E|-1/3--3-3--3-----------1--1-1--1--1--1--1--0-1-2-3-|
oh yeah i'm small.... 


G|---------------------------------------------------|
D|---------------------------------------------------|
A|-------------1--1-1--1-----------------------------|
E|---3--3-3--3-----------1--1-1--1--1--1--1--1-0-----|

G|---------------------------------------------------|
D|----------------3----------------------------------|
A|---------3--3-5-------------3--3-5-----------------|
E|--0-0--0----------0--0-0--0--------5--0------------|

G|---------------------------------------------------|
D|---------------3-----------------------------------|
A|--------3--3-5-------------------------------------|
E|-0-0--0----------0--0-0--0-------------------------|

So fucking you are...
G|---------------------------------------------------------------|
D|---------------------------------------------------------------|
A|-5--5-8--7-7--7-7-7-------5--5--------------5--5-8--7-7--7-7-7-|
E|-------------------------------5-7--7-7--7---------------------|

G|---------------------------------------------------|
D|---------------------------------------------------|
A|-5--5----------------------------------------------|
E|------5-7--7-7-7-----------------------------------|
	  

Search Paypal
auto scroll beats size up size down change color hide chords drawings
tab show chords e-chords YouTube Clip e-chords hide all tabs e-chords go to top tab