Red Hot Chili Peppers

home > Red Hot Chili Pepp...

Parallel universe live at slane Tab

Red Hot Chili Peppers

Difficulty: ExpertExpert

by rafa+dibob

tuner correct add songbook print version text version save to e-mail
chordsukulelecavacokeyboardtabbassdrumsharmonicsflute Guitar Pro
chords

Parallel universe live at slane

  		e|-------------------------------------------------------------------------------| 
B|-------------------------------------------------------------------------------| 
G|-------------------------------------------------------------------------------| 
D|--X-X-X-X-X-X-X-X-X-X-X-X-X-X-X-X-X-X-X-X-X-X-X-X-X-X-X-X-X-X-X-X-X-X-X-X-X-X--| 
A|-------------------------------------------------------------------------------| 
E|-------------------------------------------------------------------------------| 
 
e|------------------------------------------------------------------------------| 
B|------------------------------------------------------------------------------| 
G-------------------------------------------------------------------------------| 
D|-13-13-13-13-13-13-13-13-13-13-13-13-13-13-13-13-13-13-13-13-13-13-13-13-13-13| 
A|------------------------------------------------------------------------------| 
E|------------------------------------------------------------------------------| 
 
E|------------------------------------------------------------------------------| 
B|------------------------------------------------------------------------------| 
G|------------------------------------------------------------------------------| 
D|--12-12-12-12-12-12-12-12-12-12-12-12-12-12-12-12-12-12-12-12-12-12-12-12-12--| 
A|------------------------------------------------------------------------------| 
E|------------------------------------------------------------------------------| 
 
e|------------------------------------------------------------------------------| 
B|------------------------------------------------------------------------------| 
G|------------------------------------------------------------------------------| 
D|-15-15-15-15-15-15-15-15-15-15-15-15-15--17-17-17-17-17-17-17-17-17-17-17-17--| 
A|------------------------------------------------------------------------------| 
E|------------------------------------------------------------------------------| 
 
e|------------------------------------------------------------------------------| 
B|------------------------------------------------------------------------------| 
G|------------------------------------------------------------------------------| 
D|-15-15-15-15-15-15-15-15-15-15-15-15-15-14-14-14-14-14-14-14-14-14-14-14-14---| 
A|------------------------------------------------------------------------------| 
E|------------------------------------------------------------------------------| 
 
e|------------------------------------------------------------------------------| 
B|------------------------------------------------------------------------------| 
G|------------------------------------------------------------------------------| 
D|-13-13-13-13-13-13-13-13-13-13-13-13-13-13-13-13-13-13-13-13-13-13-13-13-13---| 
A|------------------------------------------------------------------------------| 
E|------------------------------------------------------------------------------| 
 
e|------------------------------------------------------------------------------| 
B|------------------------------------------------------------------------------| 
G|------------------------------------------------------------------------------| 
D|--12-12-12-12-12-12-12-12-12-12-12-12-12-12-12-12-12-12-12-12-12-12-12-12-12--| 
A|------------------------------------------------------------------------------| 
E|------------------------------------------------------------------------------| 
 
 
 
e|------------------------------------------------------------------------------| 
B|------------------------------------------------------------------------------| 
G|------------------------------------------------------------------------------| 
D|-15-15-15-15-15-15-15-15-15-15-15-15-15---------------------------------------| 
A|------------------------------------------------------------------------------| 
E|-----------------------------------------15-15-15-15-15-15-15-15-15-15-15-----| 
 
E|------------------------------------------------------------------------------| 
B|------------------------------------------------------------------------------| 
G|------------------------------------------------------------------------------| 
D|------------------------------------------------------------------------------| 
A|-15-15-15-15-15-15-15-15-15-15-15-15-15---14-14-14-14-14-14-14-14-14-14-14----| 
E|------------------------------------------------------------------------------| 
 
e|------------------------------------------------------------------------------| 
B|------------------------------------------------------------------------------| 
G|------------------------------------------------------------------------------| 
D|-13-13-13-13-13-13-13-13-13-13-13-13-13-13-13---17-17-17-15-15-15-13-13-13----| 
A|------------------------------------------------------------------------------| 
E|------------------------------------------------------------------------------| 
 
e|------------------------------------------------------------------------------| 
B|------------------------------------------------------------------------------| 
G|------------------------------------------------------------------------------| 
D|-12-12-12-12-12-12-12-12-12-12-12-12-12--15-15-15-13-13-13-13-12-12-12-12-12--| 
A|------------------------------------------------------------------------------| 
E|------------------------------------------------------------------------------| 
 
e|------------------------------------------------------------------------------| 
B|------------------------------------------------------------------------------| 
G|------------------------------------------------------------------------------| 
D|------------------------------------------------------------------------------| 
A|-13-13-13-13-13-13-13-13-13-13-13-13-13--15-15-15-15-15-15-15-15-15-15-15-----| 
E|------------------------------------------------------------------------------| 
 
E|--------------------------------------------------------------------------| 
B|--------------------------------------------------------------------------| 
G|-----------------------------------------------17^----17---16-------------| 
D|--------------------------------------------------------------------------| 
A|----15-15-15-15-15-15-15-15-15-15-15--------------------------------------| 
E|--------------------------------------------------------------------------| 
 
Refrão.... 
E|-------------------------------------------------------------------------| 
B|------------------------------------------------------------17^^---------| 
G|----5-------------------8------------------------------------------------| 
D|----5-----5------6------8-------5----------5------5----------------------| 
A|----3-----5------6------6-------5----------5------5----------------------| 
E|----------3-----=4--------------3----------3------3----------------------| 
 
E|-------------------------------------------------------------------------| 
B|------------------------------------------------------------16-----------| 
G|----5-------------------8------------------------------------------------| 
D|----5-----5------6------8-------5----------5------5----------------------| 
A|----3-----5------6------6-------5----------5------5----------------------| 
E|----------3------4--------------3----------3------3----------------------| 
 
e volta o verso... 
E|---------------------------------------------------------------------------| 
B|---------------------------------------------------------------------------| 
G|---------------------------------------------------------------------------| 
D|---13-13-13-13-13-13-13-13-13-13-13-13-13-13-13-13-13-13-13-13-13-13-------| 
A|---------------------------------------------------------------------------| 
E|---------------------------------------------------------------------------| 
 
E|---------------------------------------------------------------------------| 
B|---------------------------------------------------------------------------| 
G|---------------------------------------------------------------------------| 
D|-17-17-17-17--15-15-15-15--13-13-13-13-13-13-13-12-12-12-12-12-12-12-------| 
A|---------------------------------------------------------------------------| 
E|---------------------------------------------------------------------------| 
 
E|--------------------------------------------------------------------------| 
B|--------------------------------------------------------------------------| 
G|--------------------------------------------------------------------------| 
D|--12-12-12-12-12-12-12-12-12-12-15-15-15-15-15-15-15-15-15-15-15-15-------| 
A|--------------------------------------------------------------------------| 
E|--------------------------------------------------------------------------| 
 
E|-------------------------------------------------------------------------| 
B|-------------------------------------------------------------------------| 
G|-------------------------------------------------------------------------| 
D|---13-13-13-31-13-13-13-13-13-13-12-12-12-12-12-12-12-12-12-12-12-12-----| 
A|-------------------------------------------------------------------------| 
E|-------------------------------------------------------------------------| 
 
 
E|------------------------------------------------------------------------| 
B|------------------------------------------------------------------------| 
G|------------------------------------------------------------------------| 
D|------------------------------------------------------------------------| 
A|------------------------------------------------------------------------| 
E|-13-13-13-13-13-13-13-13-13-13-13-13-13-13-13-13-13-13-13-13-13-13------| 
 
E|------------------------------------------------------------------------------| 
B|------------------------------------------------------------------------------| 
G|------------------------------------------------------------------------------| 
D|------------------------------------------------------------------------------| 
A|---------------------------------------15-15-15-15-15-15-15-15-15-17-17-17----| 
E|-15-15-15-15-15-15-15-15-15-15-15-15------------------------------------------| 
 
E|---------------------------------------------------------------------------| 
B|---------------------------------------------------------------------------| 
G|---------------------------------------------------------------------------| 
D|---------------------------------------------------------------------------| 
A|--14-14-14-14-14-14--15-15-15-15--14-14-14-14-14-15-15-15-15-15-15---------| 
E|---------------------------------------------------------------------------| 
 
E|-------------------------------------------------------------------------| 
B|-------------------------------------------------------------------------| 
G|-------------------------------------------------------------------------| 
D|-13-13-13-13-13-13-13-13-13-13-13-13-13-13-13-13-13-13-13-13-13-13-------| 
A|-------------------------------------------------------------------------| 
E|-------------------------------------------------------------------------| 
 
E|--------------------------------------------------------------------------| 
B|--------------------------------------------------------------------------| 
G|---------------------------15-15-15-15------------------------------------| 
D|--13-13-17-17-17-17-17-17--------------12-12-12-12-12-12-12-12-12-12-12---| 
A|--------------------------------------------------------------------------| 
E|--------------------------------------------------------------------------| 
 
E|-----------------------------------------------------------------------| 
B|-----------------------------------------------------------------------| 
G|-----------------------------------------------------------------------| 
D|--12-12-12-12-12-12-12-12-12---15-15-15-15-15-15-15-15-15-15-15--------| 
A|-----------------------------------------------------------------------| 
E|-----------------------------------------------------------------------| 
 
E|--------------------------------------------------------------------------------| 
B|------------------------------------------------------------17^--16^---17--16---| 
G|--------------------------------------------------------------------------------| 
D|-17-17-17-17-17-17-17-17--------------------------------------------------------| 
A|--------------------------15-15-15-15-15-15-15-15-15-15-------------------------| 
E|--------------------------------------------------------------------------------| 
 
Refrão.... 
E|--------------------------------------------------------------------| 
B|--------------------------------------------------------------------| 
G|----5-------------------8-------------------------------------------| 
D|----5-----5------6------8-------5----------5------5-----------------| 
A|----3-----5------6------6-------5----------5------5----------15^----| 
E|----------3------4--------------3----------3------3-----------------| 
. 
E|--------------------------------------------------------------------| 
B|--------------------------------------------------------------------| 
G|----5-------------------8------------------------------------15-----| 
D|----5-----5------6------8-------5----------5------5-----------------| 
A|----3-----5------6------6-------5----------5------5-----------------| 
E|----------3------4--------------3----------3------3-----------------| 
 
E|--------------------------------------------------------------------| 
B|-------------------------------------------------15---18------------| 
G|----5-------------------8---------------------------------17---16---| 
D|----5-----5------6------8-------5----------5------------------------| 
A|----3-----5------6------6-------5----------5------------------------| 
E|----------3------4--------------3----------3------------------------| 
 
E|--------------------------------------------------------------------| 
B|--------------------------------------------------------------------| 
G|----5-------------------8-------------------------------------------| 
D|----5-----5------6------8-------5-------12------13----------10------| 
A|----3-----5------6------6-------5-----------------------------------| 
E|----------3------4--------------3-----------------------------------| 
 
Dae vem isso... 
E|-------------------------------------------------------------------------| 
B|-------------------------------------------------------------------------| 
G|--8-8-8-8-8-8-8-8-8-8-8--------------------------------------------------| 
D|--------------------------8-8-8-8-8-8-8-8-8-8----------------------------| 
A|------------------------------------------------10-10-10-10-10-10--------| 
E|-------------------------------------------------------------------------| 
 
E|-------------------------------------------------------------------------------| 
B|-------------------------------------------------------------------------------| 
G|--8-8-8-8-8-8-8-8-8------------------------------------------------------------| 
D|---------------------8-8-8-8-8-8-8-8-8-8---------------------10^--10^--10^-10^-| 
A|-----------------------------------------10-10-10-10-10-10---------------------| 
E|-------------------------------------------------------------------------------| 
 
E|-------------------------------------------------------------------------------| 
B|-------------------------------------------------------------------------------| 
G|--8-8-8-8-8-8-8-8-8------------------------------------------------------------| 
D|--------------------8-8-8-8-8-8-8-8-8-8---------------------10^--10^--10^-10^--| 
A|----------------------------------------10-10-10-10-10-10----------------------| 
E|-------------------------------------------------------------------------------| 
 
E|--------------------------------------------------------------------| 
B|--------------------------------------------------------------------| 
G|--8-8-8-8-8-8-8-8-8-8-8---------------------------------------------| 
D|------------------------8-8-8-8-8-8-8-8-8-8-------------------------| 
A|---------------------------------------------10-10-10-10-10-10------| 
E|--------------------------------------------------------------------| 
 
E volta o verso.. 
E|-------------------------------------------------------------------------------| 
B|-------------------------------------------------------------------------------| 
G|---------------------------------------------------------------15-15-15-15-15--| 
D|-13-13-13-13-13-13-13-13-13-13-13-13-13-13-13--17-17-17-17-17------------------| 
A|-------------------------------------------------------------------------------| 
E|-------------------------------------------------------------------------------| 
 
E|----------------------------------------------------------------------------------| 
B|----------------------------------------------------------------------------------| 
G|----------------------------------------------------------------------------------| 
D|-12-12-12-12-12-12-12-12-12-12-12-12--15-15-15-13-13-13-12-12-12-12-12-12-12------| 
A|----------------------------------------------------------------------------------| 
E|----------------------------------------------------------------------------------| 
 
E|----------------------------------------------------------------------------------| 
B|----------------------------------------------------------------------------------| 
G|----------------------------------------------------------------------------------| 
D|-12-12-13-13-15-15-15-15-15-15-15-15-15-15-15-------------------------------------| 
A|----------------------------------------------15-15-15-15-15-15-15-15-15-15-------| 
E|----------------------------------------------------------------------------------| 
 
E|---------------------------------------------------------------------------------------| 
B|---------------------------------------------------------------------------------------| 
G|---------------------------------------------------------------------------------------| 
D|---------------------------------------------------------------------------------------| 
A|-15-15-15-15-15-15-15-15-17-17-14-14-14-14-14-15-15-15-15-15-14-14-14-14-15-15-15-15---| 
E|---------------------------------------------------------------------------------------| 
 
E|-------------------------------------------------------------------------| 
B|-------------------------------------------------------------------------| 
G|-------------------------------------------------------------------------| 
D|-------------------------------------------------------------------------| 
A|--------------------------------------18-18-18-18-18-18-18-18-18-18------| 
E|-15-15-15-15-15-15-15-15-15-15-15-15-------------------------------------| 
 
E|-------------------------------------------------------------------------| 
B|-------------------------------------------------------------------------| 
G|-------------------------------------------------------------------------| 
D|-------------------------------------------------------------------------| 
A|------------------------------------------17-17-17-17-17-17-17-17-17-17--| 
E|--13-13-13-13-13-13-13-13-13-13-13-13-13---------------------------------| 
 
E|----------------------------------------------------------------------------| 
B|----------------------------------------------------------------------------| 
G|----------------------------------------------------------------------------| 
D|----------------------------------------------------------------------------| 
A|----------------------------------------------------------------------------| 
E|--17-17-17-17-17-17-17-17-17-17-17-17--18-18-18-18-18-18-18-18-18-18-18-18--| 
 
E|-----------------------------------------------------18----------18-------| 
B|----------------------------------------------19^----------19^------------| 
G|--------------------------------------------------------------------------| 
D|--------------------------------------------------------------------------| 
A|--17-17-17-17-17-17-17-17-17-17-17-17-------------------------------------| 
E|--------------------------------------------------------------------------| 
 
Refrão.... 
E|------------------------------------------------------------------------| 
B|------------------------------------------------------------------------| 
G|----5-------------------8-----------------------------------------------| 
D|----5-----5------6------8-------5----------5------5---------------------| 
A|----3-----5------6------6-------5----------5------5-------15^-----------| 
E|----------3------4--------------3----------3------3---------------------| 
 
E|------------------------------------------------------------------------| 
B|------------------------------------------------------------------------| 
G|----5-------------------8---------------------------17----16------------| 
D|----5-----5------6------8-------5----------5----------------------------| 
A|----3-----5------6------6-------5----------5----------------------------| 
E|----------3------4--------------3----------3----------------------------| 
 
E|---------------------------------------------------------------------| 
B|---------------------------------------15----18----------------------| 
G|----5-------------------8-------------------------17---16------------| 
D|----5-----5------6------8-------5------------------------------------| 
A|----3-----5------6------6-------5------------------------------------| 
E|----------3------4--------------3------------------------------------| 
                                                              Agora começa u solo... 
E|-----------------------------------------------------------------------------------| 
B|-----------------------------------------17-16------17-16-----17-16------17-16-----| 
G|----5-------------------8-----------------------17---------17--------17--------17--| 
D|----5-----5------6------8-------5--------------------------------------------------| 
A|----3-----5------6------6-------5--------------------------------------------------| 
E|----------3------4--------------3--------------------------------------------------| 
 
E|------------------------------------------------------------15--15--15--15-----| 
B|-------------------------------------------------------------------------------| 
G|--17-16-------17--------17^-----17-----17----17--17--17------------------------| 
D|---------17--------------------------------------------------------------------| 
A|-------------------------------------------------------------------------------| 
E|-------------------------------------------------------------------------------| 
 
E|-----------------------------------------15------------------------------------| 
B|--18--16---15--15-------15^------15^------------16----15------15-----15-16-18--| 
G|-------------------------------------------------------------------------------| 
D|-------------------------------------------------------------------------------| 
A|-------------------------------------------------------------------------------| 
E|-------------------------------------------------------------------------------| 
 
E|-------------------------------------------------------------------------------| 
B|--15-16-18-15-16-18--15-16-18--15-16-18-15-16-18-15-16-18-15-16-18-15-16-18----| 
G|-------------------------------------------------------------------------------| 
D|-------------------------------------------------------------------------------| 
A|-------------------------------------------------------------------------------| 
E|-------------------------------------------------------------------------------| 
 
E|--------------------------15^--15^--15^--15^--15^------15------15^---15---15---| 
B|--15-16-18-15-16-18-15---------------------------------------------------------| 
G|-------------------------------------------------------------------------------| 
D|-------------------------------------------------------------------------------| 
A|-------------------------------------------------------------------------------| 
E|-------------------------------------------------------------------------------| 
 
E|----15--15--15----18^-----18^--------15--15--15----18^-----18^---------| 
B|-----------------------------------------------------------------------| 
G|-----------------------------------------------------------------------| 
D|-----------------------------------------------------------------------| 
A|-----------------------------------------------------------------------| 
E|-----------------------------------------------------------------------| 
 
E|-15--15--15--15--15------15-15-15^-15-15-15-------15--15--13------13-15-13----| 
B|------------------------------------------------------------------------------| 
G|------------------------------------------------------------------------------| 
D|------------------------------------------------------------------------------| 
A|------------------------------------------------------------------------------| 
E|------------------------------------------------------------------------------| 
 
E|--13---11-13-11-----11----10-11-10-----10----8-10-8----8----8-6-8----6----------| 
B|------------------------------------------------------------------------8---8---| 
G|--------------------------------------------------------------------------------| 
D|--------------------------------------------------------------------------------| 
A|--------------------------------------------------------------------------------| 
E|--------------------------------------------------------------------------------| 
 
E|----8-8-8^----8--8---8^---8---8--8--8----8^-----8--8--8?8^-------8--8--8?8^---| 
B|--------------8--8------------8--8--8----8^-----8--8--8?8^-------8--8--8?8^---| 
G|------------------------------------------------------------------------------| 
D|------------------------------------------------------------------------------| 
A|------------------------------------------------------------------------------| 
E|------------------------------------------------------------------------------| 
 
E|--8--8-----8^-----8--8--8?8^-----8--8--8?8^-----8--8-----8^----8--8--8?8^^---| 
B|--8--8-----8^-----8--8--8?8^-----8--8--8?8^-----8--8-----8^----8--8--8?8^^---| 
G|-----------------------------------------------------------------------------| 
D|-----------------------------------------------------------------------------| 
A|-----------------------------------------------------------------------------| 
E|-----------------------------------------------------------------------------| 
 
E|---8--8--8?8^----8--8-----13^^----13-11-13-11-----13^^---13-11-13-11-----| 
B|---8--8--8?8^----8--8----------------------------------------------------| 
G|-------------------------------------------------------------------------| 
D|-------------------------------------------------------------------------| 
A|-------------------------------------------------------------------------| 
E|------------------------------------------------------------| 
 
E|--13^-----13-11-----13^----13-11----13^----13-11-------13^-----18----18-15---| 
B|-----------------------------------------------------------------------------| 
G|-----------------------------------------------------------------------------| 
D|-----------------------------------------------------------------------------| 
A|-----------------------------------------------------------------------------| 
E|-----------------------------------------------------------------------------| 
 
E|------18-15-----18-15-----18-15-----18-15-----18-15-----18-15----18-15----| 
B|---15-------15--------15--------15--------15--------15--------15----------| 
G|--------------------------------------------------------------------------| 
D|--------------------------------------------------------------------------| 
A|--------------------------------------------------------------------------| 
E|--------------------------------------------------------------------------| 
 
E|-------18-15------18-15------18-15-----18-15-----18-15-----18-15-----18-15----| 
B|---15--------15---------15---------15--------15--------15--------15-----------| 
G|------------------------------------------------------------------------------| 
D|------------------------------------------------------------------------------| 
A|------------------------------------------------------------------------------| 
E|------------------------------------------------------------------------------| 
 
E|------18-15------18-15-----18-15-----18-15-----18-15-----18-15----18-15----| 
B|---15--------15--------15--------15--------15--------15--------15----------| 
G|---------------------------------------------------------------------------| 
D|---------------------------------------------------------------------------| 
A|---------------------------------------------------------------------------| 
E|---------------------------------------------------------------------------| 
 
E|-------18-15-----------21^^----------21^^-------21-------21^^-------20----| 
B|---15----------15---------------------------------------------------------| 
G|--------------------------------------------------------------------------| 
D|--------------------------------------------------------------------------| 
A|--------------------------------------------------------------------------| 
E|--------------------------------------------------------------------------| 
 
 
 
 
 
 
 
 
Rafael pereira ribeiro... 
 

	  

Search Paypal
auto scroll beats size up size down change color hide chords drawings
tab show chords e-chords YouTube Clip e-chords hide all tabs e-chords go to top tab