Red Hot Chili Peppers

home > Red Hot Chili Pepp...

Otherside (solos e riff's) Tab

Red Hot Chili Peppers

Difficulty: BeginnerBeginner

by npjunior

tuner correct add songbook print version text version save to e-mail
chordsukulelecavacokeyboardtabbassdrumsharmonicsflute Guitar Pro
chords

Otherside (solos e riff's)

	  Intro e versos...faça uma vez solo, dps repita com o Refrão : HOW LONG, HOW LONG...  
e|  
b|  
g|---------------4---------------------  
d|-----------7-7---7-------------------  
a|--7--7--7-----------7--7--7---5--5--5  
E|  
repita isto varias vezes... antes de entrar o meio da musica faça isso:  
...iTS O A EVER   
e|  
b|  
g|------------------------------------  
d|-----------7-7---14-14-14--9-9-9-9-9----------  
a|--7--7--7--------  
E|  
  
i hEARD VOICE THOUGH A PHOTOGRAPH...  
e----------8-------------------15---  
b---------------------------12-----  
g---------------------------------  
d---------------------------------  
a---------------------------------  
E-----5------55------/1212---------  
i thoug... past  
e----------8-------------------15---  
b---------------------------12-----  
g---------------------------------  
d---------------------------------  
a---------------------------------  
E-----5------55------/1212---------  
once now you can never go back  
e----------8-------------------15---  
b---------------------------12-----  
g---------------------------------  
d---------------------------------  
a---------------------------------  
E-----5------55-------1212---------  
i Got a taken on the otheside  
e---------------------------------  
b---------------------------------  
g---------------------------------  
d-------5-------------7-----------  
a-------5-------------7-----------  
E-------3-------------5-----------  
Century a on meat to me  
e-----8-------------------15--  
b----------------------12-----  
g-----------------------------  
d-----------------------------  
a-----------------------------  
E-5------55------/1212--------  
  
  
  
Cemetery where a marry the sea  
e----------8-------------------15-  
b---------------------------12----  
g---------------------------------  
d---------------------------------  
a---------------------------------  
E-----5------55------/1212--------  
  
strang... change... mama  
e----------8-------------------15-  
b---------------------------12----  
g---------------------------------  
d---------------------------------  
a---------------------------------  
E-----5------55------/1212--------  
i gotta taken on the otherside  
e-----------------------------  
b-----------------------------  
g-----------------------------  
d-------5-------------7-------  
a-------5-------------7-------  
E-------3-------------5-------  
  
       taken on the otheside  
e-----------------------------  
b-----------------------------  
g-----------------------------  
d-------5-------------7-------  
a-------5-------------7-------  
E-------3-------------5-------  
       taken on.....  
e---------------------------  
b---------------------------  
g---------------------------  
d-------5-------------------  
a-------5-------------------  
E-------3-------------------  
       taken on   
e---------------------------  
b---------------------------  
g---------------------------  
d-------5-------------------  
a-------5-------------------  
E-------3-------------------  
REpita a introducao incluindo akela partizinha q vc faz no final dele...  
Depois continue tocando a musica com as RIffs aki encima, leve a musica normal...  
dps faca novamente a o refrao  
E faca eesse Riff COm distorcao e deixo soar  
e--------------------  
b--------------------  
g-------------9------  
d---9---------12-----2x  
a---12--------12-----  
e---12---------------  
  
  
Turn me on take... for hade  
e-------------------------  
b-------------------------  
g-----------------------12   
d---12------------------12  
a---12------------------9-  
e---9--------------------  
Solo: Faça como quiser...  
o oficial eh assim:  
e--121212121212-15-1212121212-15-1212-15-1212-15-1212-15-17  
b--------------------------------------------------------------17-15  
g--------------------------------  
d-----------------------------------  
a-----------------------------------  
E------------------------------------  
Toq o refrao, varias vezes  
e termine a musica em A  
D---7  
A---7  
E---5  
  
Ae galera, desculpa pelos erros de inglês!!  
espero q consigam tocar  
flw  
By: Norberto Peil Junior  


	  

there isn't a video lesson for this song

request
Full key step upFull key step up
Half key step upHalf key step up
Half key step downHalf key step down
Full key step downFull key step down
Search
auto scroll beats size up size down change color hide chords drawings
tab show chords e-chords YouTube Clip e-chords hide all tabs e-chords go to top tab