Red Hot Chili Peppers

home > Red Hot Chili Pepp...

Love Rollercoaster Tab

Red Hot Chili Peppers

Difficulty: nolevelnolevel

tuner correct add songbook print version text version save to e-mail
chordsukulelecavacokeyboardtabbassdrumsharmonicsflute Guitar Pro
chords

Love Rollercoaster

  		Chords: C, Bb, A, G, G#

Note: You can use Bar chords, or standard, but i think
this sounds best.
you can leave out the (1st fret)bar on the Bb.
(You have to use and Bar A, and standard so
i've named Standard A "A", and Bar A "A!")

x = Mute
> = Up strum

This whole song is two basic Riffs:

Riff1:
    >   >  C     Bb    A     >   >       Bb    C
e|---------------------------x-x-x--------------------|
B|o--------1-1-1-3-3-3-2-2-2-x-x-x-2-2-2-3-3-3-1-1-1-o|
G|--x-x-x--0-0-0-3-3-3-2-2-2-x-x-x-2-2-2-3-3-3-0-0-0--|
D|o-x-x-x--2-2-2-3-3-3-2-2-2-x-x-x-2-2-2-3-3-3-2-2-2-o|
A|--x-x-x--3-3-3-------------------------------3-3-3--|
E|--x-x-x---------------------------------------------|

Riff2(....Your love is like....):
    G
    >   >   >                         G#  A!
e|----------------------------------------------|
B|o--------------------------------------------o|
G|----------------------------------------------|
D|o-x-5-x-5-x-5-x-5-x-5-5-5-5-x-5-x-5-6-6-7-7/-o|
A|--x-5-x-5-x-5-x-5-x-5-5-5-5-x-5-x-5-6-6-7-7/--|
E|--x-3-x-3-x-3-x-3-x-3-3-3-3-x-3-x-3-4-4-5-5/--|


__________________________________________________________


Versão 2
-======-

(Chorus is a G)
The Riff Goes Like:

    C   C   A# A# A#  A    A  A   A     A   A#    A#  C    C 
E-|-8---8-|-6--6--6-|-5----5--5-|-5-----5-|-6-----6-|-8----8--|
B-|-8---8-|-6--6--6-|-5----5--5-|-5-----5-|-6-----6-|-8----8--|
G-|-9---9-|-7--7--7-|-6----6--6-|-6-----6-|-7-----7-|-9----9--|
D-|-------|---------|-----------|---------|---------|---------|
A-|-------|---------|-----------|---------|---------|---------|
E-|-------|---------|-----------|---------|---------|---------|

  Lyrics:

YOU GIVE ME THAT FUNNY FEELING IN MY TUMMY....
ahw shit, yeah, that's right huh

Rollercoaster of Love (say what)
Rollercoaster yeah (oohh oohh oohh)
Oh baby you know what I'm talking about
Rollercoaster of Love
oh yeah it's Rollercoaster time
lovin' you is really wild
Oh its just a love rollercoaster
step right up and get your tickets

Chorus:  (In "G")
 Your love is like a Rollercoaster baby,baby
 I wanna ride yeah (awawaw)

Move over dad 'cause I'm a double dipple
Upside down on th big dip dipper
1,2,1,2,3 I've got a ticket come ride with me
Let me go down on the marry-go-round
All is fair 'n' a big fair ground
Let's go slow. let's go fast
Like a liqourice twist gonna whip your ass.

Rollercoaster (say what)
I will be there for you I will be your man.
	  

Full key step upFull key step up
Half key step upHalf key step up
Half key step downHalf key step down
Full key step downFull key step down
Search Paypal
auto scroll beats size up size down change color hide chords drawings
tab show chords e-chords YouTube Clip e-chords hide all tabs e-chords go to top tab