Red Hot Chili Peppers

home > Red Hot Chili Pepp...

Look Around Tab

Red Hot Chili Peppers

Difficulty: ExpertExpert

by aman%5Fclaudino

tuner correct add songbook print version text version save to e-mail
chordsukulelecavacokeyboardtabbassdrumsharmonicsflute Guitar Pro
chords

Look Around

  		
e|---10-10------131313-10-10------1515-13-15---| 
B|---10-h11-...-111111-10-h11-...-1515-13-15---| 
G|---10-10-------------10-10-------------------| 
D|---------------------------------------------| 
A|---------------------------------------------| 
E|---------------------------------------------| 

e|---1313-15------1313-15------1313-15---| 
B|---1313-15------1313-15------1313-15---| 
G|---------------------------------------| 
D|---------------------------------------| 
A|---------------------------------------| 
E|---------------------------------------| 

e|-----------------------------------------------------------------------------| 
B|--------------------------------13-15~--15\13~-------------------11----------| 
G|------------------------10-12~------------------14-15-12~--10b12----12-------| 
D|----------------10-12~-------------------------------------------------12~---| 
A|---10~--12-13~---------------------------------------------------------------| 
E|-----------------------------------------------------------------------------| 

e|---10-10------131313-10-10------1515-13-15---| 
B|---10-h11-...-111111-10-h11-...-1515-13-15---| 
G|---10-10-------------10-10-------------------| 
D|---------------------------------------------| 
A|---------------------------------------------| 
E|---------------------------------------------| 

e|---13b15-10--8-8-10~--8h10p8-6--6-8b10-8b10-8b10-8b10r8p6~---| 
B|-------------------------------------------------------------| 
G|-------------------------------------------------------------| 
D|-------------------------------------------------------------| 
A|-------------------------------------------------------------| 
E|-------------------------------------------------------------| 

e|---1313-15---| 
B|---1313-15---| 
G|-------------| 
D|-------------| 
A|-------------| 
E|-------------| 

e|-----------------------------------------------------------------------------| 
B|--------------------------------13-15~--15\13~-------------------11----------| 
G|------------------------10-12~------------------14-15-12~--10b12----12-------| 
D|----------------10-12~-------------------------------------------------12~---| 
A|---10~--12-13~---------------------------------------------------------------| 
E|-----------------------------------------------------------------------------| 

e|---10-10------131313-10-10------1515-13-15---| 
B|---10-h11-...-111111-10-h11-...-1515-13-15---| 
G|---10-10-------------10-10-------------------| 
D|---------------------------------------------| 
A|---------------------------------------------| 
E|---------------------------------------------| 

e|----------------------------------------------------------------------------------| 
B|---12------12------12-12-12-12-12-12-12-12---12-12-12-12-12-12-12-12-12--12-------| 
G|---12------12------12-12-12-12-12-12-12-12---12-12-12-12-12-12-12-12-12--12-...---| 
D|---12------12------12-12-12-12-12-12-12-12---12-12-12-12-12-12-12-12-12--12-------| 
A|----------------------------------------------------------------------------------| 
E|----------------------------------------------------------------------------------| 

e|---------------------------------------------------------------------------------------| 
B|---------------------------------------------------------------------------------------| 
G|--------------3-5b7r5-3------------3h5p3-3h5p3-3h5p3------------3-3----3-3----3-5b7r5-3| 
D|---3h5~---3h5-----------3h5~---3h5------5-----5-----5-3h5~---3h5----3h5----3h5---------| 
A|---------------------------------------------------------------------------------------| 
E|---------------------------------------------------------------------------------------| 
 |                                                                                       | 
e|---------------------------------------------------------------------------------------| 
B|---------------------------------------------------------------------------------------| 
G|-------3h5p3------3h5p3--------15h17p15---------15h17p15-------------------------------| 
D|---3h5------5-3h5------5-15h17---------17-15h17---------17--17\------------------------| 
A|---------------------------------------------------------------------------------------| 
E|---------------------------------------------------------------------------------------| 

E|---10-10------131313-10-10------1515-13-15---| 
B|---10-h11-...-111111-10-h11-...-1515-13-15---| 
G|---10-10-------------10-10-------------------| (3x) 
D|---------------------------------------------| 
A|---------------------------------------------| 
E|---------------------------------------------| 

e|---10-10------131313-10-10--------------| 
B|---10-h11-...-111111-10-h11-...---------| 
G|---10-10-------------10-10--------------| 
D|----------------------------------------| 
A|----------------------------------10~---| 
E|----------------------------------------| 
	  

Search Paypal
auto scroll beats size up size down change color hide chords drawings
tab show chords e-chords YouTube Clip e-chords hide all tabs e-chords go to top tab