Red Hot Chili Peppers

home > Red Hot Chili Pepp...

Hard to concentrate Tab

Red Hot Chili Peppers

Difficulty: BeginnerBeginner

by europeu

tuner correct add songbook print version text version save to e-mail
chordsukulelecavacokeyboardtabbassdrumsharmonicsflute Guitar Pro
chords

Hard to concentrate

Year: 2006 - Album: Stadium Arcadium

  		Verse 1: 
    C         Bm        C         Bm 
 
e|---3-----------2-----------3-----------2-------| 
B|---6-----------3-----------6-----------3-------| 
G|---6-----------4-----------6-----------4-------|  x2 
D|---6-----------4-----------6-----------4-------| 
A|---3-----------2-----------3-----------2-------| 
E|-----------------------------------------------| 
 
 
Chorus 1: 
     C        G         D         Em 
e|----3----------3-----------5-----------7-------| 
B|----6----------3-----------7-----------8-------| 
G|----6----------4-----------7-----------9-------|  x3 
D|----6----------6-----------7-----------9-------| 
A|----3----------6-----------5-----------7-------| 
E|---------------3-------------------------------| 
 
     C        G         D                   Bm 
e|----3----------3-----------5---------------------2-------| 
B|----6----------3-----------7---------------------3-------| 
G|----6----------4-----------7---------------------4-------| 
D|----6----------6-----------7---------------------4-------| 
A|----3----------6-----------5---------------------2-------| 
E|---------------3-----------------------------------------| 
 
Verse 2: 
Guitar 1: 
    C         Bm        C         Bm 
 
e|---3-----------2-----------3-----------2-------| 
B|---6-----------3-----------6-----------3-------| 
G|---6-----------4-----------6-----------4-------| 
D|---6-----------4-----------6-----------4-------| 
A|---3-----------2-----------3-----------2-------| 
E|-----------------------------------------------| 
 
 
Guitar 2: 
e|----15~~~~~~~~~~~14~~~~~~~~~~~15~~~~~~~~~~~14~~~~~~~~~~~| 
B|--------------------------------------------------------| 
G|--------------------------------------------------------| 
D|--------------------------------------------------------| 
A|--------------------------------------------------------| 
E|--------------------------------------------------------| 
 
 
Chorus 2: 
 
     C        G         D         Em 
e|----3----------3-----------5-----------7-------| 
B|----6----------3-----------7-----------8-------| 
G|----6----------4-----------7-----------9-------|  x3 
D|----6----------6-----------7-----------9-------| 
A|----3----------6-----------5-----------7-------| 
E|---------------3-------------------------------| 
 
     C        G         D                   Bm 
e|----3----------3-----------5---------------------2-------| 
B|----6----------3-----------7---------------------3-------| 
G|----6----------4-----------7---------------------4-------| 
D|----6----------6-----------7---------------------4-------| 
A|----3----------6-----------5---------------------2-------| 
E|---------------3-----------------------------------------| 
 
 
Solo: 
                                                           ----- 
e|----------------------------------------------------------|  | 
B|------8-8-----10-10--8------------8-8---8--10-10--8-------|  | 
G|---9-------9------------9------9-------9------------9-----|  | 
D|----------------------------------------------------------|  | 
A|----------------------------------------------------------|  | 
E|----------------------------------------------------------|  | 
                                                               | 2x 
e|----------------------------------------------------------|  | 
B|---------7----7-8--7---------------7----7-8--7------------|  | 
G|------7------7-------7----------7------7-------7----------|  | 
D|---9-------------------------9----------------------------|  | 
A|----------------------------------------------------------|  | 
E|----------------------------------------------------------|  | 
                                                           ----- 
 
Chorus 3: 
 
e|-----------3--3----------3--3----------2--2------3--3---------| 
B|--------------------------------------------------------------| 
G|---7--75-------5---54-------4---42-------2/4-------4----------|  x3 
D|--------------------------------------------------------------| 
A|--------------------------------------------------------------| 
E|--------------------------------------------------------------| 
 
                                   D 
e|-----------3--3----------3--3-----5--5---5-5--5-5--5-----8--8---8--8---8--------| 
B|----------------------------------7--7---7-7--7-7--7-----10-10--10-10--10-------| 
G|---7--75-------5---54-------4---7--7---7-7--7-7--7-----10-10--10-10--10---------| 
D|----------------------------------7--7---7-7--7-7--7-----10-10--10-10--10-------| 
A|----------------------------------5--5---5-5--5-5--5-----8--8---8--8---8--------| 
E|--------------------------------------------------------------------------------| 
 
Bridge: 
    C                    G         D 
e|---3----------------------3-----------5------------------| 
B|---6----------------------3-----------7------------------| 
G|---6----------------------4-----------7------------------|  x2 
D|---6----------------------5-----------7------------------| 
A|---3----------------------5-----------5------------------| 
E|--------------------------3------------------------------| 
 
    C                    G          D 
e|------------3----------------------3-------------5-------| 
B|---------5----------------------3-------------7----------| 
G|------5----------------------4-------------7-------------| 
D|---5----------------------5-------------7----------------| 
A|---------------------------------------------------------| 
E|---------------------------------------------------------| 
 
    C                    G           D 
e|------------3----------------------3----5----5---5-5--5-5--5-----5-5--5-5--5-----5-5--5-5--5----| 
B|---------5----------------------3-------7----7---7-7--7-7--7-----7-7--7-7--7-----7-7--7-7--7----| 
G|------5----------------------4----------7----7---7-7--7-7--7-----7-7--7-7--7-----7-7--7-7--7----| 
D|---5----------------------5-------------7----7---7-7--7-7--7-----7-7--7-7--7-----7-7--7-7--7----| 
A|----------------------------------------5----5---5-5--5-5--5-----5-5--5-5--5-----5-5--5-5--5----| 
E|------------------------------------------------------------------------------------------------| 
 
Verse 3: 
                                                           ----- 
e|----------------------------------------------------------|  | 
B|------8-8-----10-10--8------------8-8---8--10-10--8-------|  | 
G|---9-------9------------9------9-------9------------9-----|  | 
D|----------------------------------------------------------|  | 
A|----------------------------------------------------------|  | 
E|----------------------------------------------------------|  | 
                                                               | 2x 
e|----------------------------------------------------------|  | 
B|---------7----7-8--7---------------7----7-8--7------------|  | 
G|------7------7-------7----------7------7-------7----------|  | 
D|---9-------------------------9----------------------------|  | 
A|----------------------------------------------------------|  | 
E|----------------------------------------------------------|  | 
                                                           ----- 
 
Chorus 4+5: 
 
e|-----------3--3----------3--3----------2--2------3--3---------| 
B|--------------------------------------------------------------| 
G|---7--75-------5---54-------4---42-------2/4-------4----------|  x3 
D|--------------------------------------------------------------| 
A|--------------------------------------------------------------| 
E|--------------------------------------------------------------| 
 
                                   D 
e|-----------3--3----------3--3-----5--5---5-5--5-5--5-----8--8---8--8---8--------| 
B|----------------------------------7--7---7-7--7-7--7-----10-10--10-10--10-------| 
G|---7--75-------5---54-------4---7--7---7-7--7-7--7-----10-10--10-10--10---------| 
D|----------------------------------7--7---7-7--7-7--7-----10-10--10-10--10-------| 
A|----------------------------------5--5---5-5--5-5--5-----8--8---8--8---8--------| 
E|--------------------------------------------------------------------------------| 
 
e|---7---| 
B|---7---| 
G|---7---| End 
D|---9---| 
A|---9---| 
E|---7---| 
 
| /  slide up 
|   slide down 
| h  hammer-on 
| p  pull-off 
| ~  vibrato 
| +  harmonic 
| x  Mute note 
 

	  

Full key step upFull key step up
Half key step upHalf key step up
Half key step downHalf key step down
Full key step downFull key step down
Search Paypal
auto scroll beats size up size down change color hide chords drawings
tab show chords e-chords YouTube Clip e-chords hide all tabs e-chords go to top tab