Red Hot Chili Peppers

home > Red Hot Chili Pepp...

Goldmine Tab

Red Hot Chili Peppers

Difficulty: nolevelnolevel

by victborges

tuner correct add songbook print version text version save to e-mail
chordsukulelecavacokeyboardtabbassdrumsharmonicsflute Guitar Pro
chords

Goldmine

  		

Intro: 

00:00 

e|--------------------------------------| 
B|----10--------------------------------| 
G|--------------------------------------| 
D|--------------------------------------| 
A|--------------------------------------| 
E|--------------------------------------| 

Main Riff: 

00:09 

The rhythm it's the same of "If you have to Ask" 
In the fourth time anticipate the last note. 

e|---------------------------------------| 
B|---------------------------------------| 
G|---------------------------------------| 
D|---7-x-x-7-x-x-7-x-x-7-x-x-7-7---------| (x4) 
A|---------------------------------------| 
E|---------------------------------------| 

00:19 

e|---------------------------------------| 
B|---------------------------------------| 
G|------5--7br--5--4---------------------| (x3) 
D|---7-----------------------------------| 
A|---------------------------------------| 
E|---------------------------------------| 

00:27 

e|---------------------------------------| 
B|---10-10--10------10--9---10--9--10----| 
G|---9--9---9-------9---9---9---9--9-----| 
D|---9--9---9-----9-9---9---9---9--9-----| 
A|---------------------------------------| 
E|---------------------------------------| 

00:29 

e|---------------------------------------| 
B|---------------------------------------| 
G|---------------------------------------| 
D|---7-x-x-7-x-x-7-x-x-7-x-x-7-7---------| (x4) 
A|---------------------------------------| 
E|---------------------------------------| 

00:39 

e|---------------------------------------| 
B|---------------------------------------| 
G|------5--7br--5--4---------------------| (x3) 
D|---7-----------------------------------| 
A|---------------------------------------| 
E|---------------------------------------| 

This one is different: 

00:46 

e|---------------------------------------| 
B|---------------------------------------| 
G|---10---10-10-------10---12------------| 
D|---9----9--9----9---9----9-------------| 
A|---9----9--9----9---9------------------| 
E|---------------------------------------| 

Chorus (x2): 

00:49 

A - E 

e|---------------------------------------| 
B|---14----14--14---9-----10--9----------| 
G|---14----14--14---9-----9---9----------| 
D|---14----14--14---9-----9---9----------| 
A|---------------------------------------| 
E|---------------------------------------|  

G - D 

e|---------------------------------------| 
B|---12--12---7----7--7------------------| 
G|---12--12---7----7--7------------------| 
D|---12--12---7----7--7------------------| 
A|---------------------------------------| 
E|---------------------------------------| 

F - C 

e|---------------------------------------| 
B|---10----10--10---5----6--5------------| 
G|---10----10--10---5----5--5------------| 
D|---10----10--10---5----5--5------------| 
A|---------------------------------------| 
E|---------------------------------------| 

E 

e|---------------------------------------| 
B|---9--9--9--9--9--9--9--9--9--9--------| 
G|---9--9--9--9--9--9--9--9--9--9--------| 
D|---9--9--9--9--9--9--9--9--9--9--------| (x2 In the second time) 
A|---------------------------------------| 
E|---------------------------------------| 

Riff: 

01:11 

e|---------------------------------------| 
B|---------------------------------------| 
G|---------------------------------------| 
D|---7-x-x-7-x-x-7-x-x-7-x-x-7-7---------| (x4) 
A|---------------------------------------| 
E|---------------------------------------| 

01:21 

e|---------------------------------------| 
B|---------------------------------------| 
G|------5--7br--5--4---------------------| (x3) 
D|---7-----------------------------------| 
A|---------------------------------------| 
E|---------------------------------------| 

01:29 

e|---------------------------------------| 
B|---10-10--10------10--9---10--9--10----| 
G|---9--9---9-------9---9---9---9--9-----| 
D|---9--9---9-----9-9---9---9---9--9-----| 
A|---------------------------------------| 
E|---------------------------------------| 

Chorus (x2) 

01:31 

A - E 

e|---------------------------------------| 
B|---14----14--14---9-----10--9----------| 
G|---14----14--14---9-----9---9----------| 
D|---14----14--14---9-----9---9----------| 
A|---------------------------------------| 
E|---------------------------------------|  

G - D 

e|---------------------------------------| 
B|---12--12---7----7--7------------------| 
G|---12--12---7----7--7------------------| 
D|---12--12---7----7--7------------------| 
A|---------------------------------------| 
E|---------------------------------------| 

F - C 

e|---------------------------------------| 
B|---10----10--10---5----6--5------------| 
G|---10----10--10---5----5--5------------| 
D|---10----10--10---5----5--5------------| 
A|---------------------------------------| 
E|---------------------------------------| 

E 

e|---------------------------------------| 
B|---9--9--9--9--9--9--9--9--9--9--------| 
G|---9--9--9--9--9--9--9--9--9--9--------| 
D|---9--9--9--9--9--9--9--9--9--9--------| (x2 In the second time) 
A|---------------------------------------| 
E|---------------------------------------| 

Break (x2): 

01:54 

F 

e|--------------------------------------| 
B|---10--10--x--10--x--10--10--10-------| 
G|-----------x------x-------------------| 
D|---10--10--x--10--x--10--10--10-------| 
A|---8---8---x--8---x--8---8---8--------| 
E|--------------------------------------| 

E 

e|--------------------------------------| 
B|---9---9--x--9--x--9--9--9------------| 
G|----------x-----x---------------------| 
D|---9---9--x--9--x--9--9--9------------| 
A|---7---7--x--7--x--7--7--7------------| 
E|--------------------------------------| 

02:04 

C 

e|---12---12--x--12--x--15---12--12-----| 
B|---13---13--x--13--x--13---13--13-----| 
G|---12---12--x--12--x--12---12--12-----| 
D|--------------------------------------| 
A|--------------------------------------| 
E|--------------------------------------| 

F                                         (x2) 

e|---8----8---x--8---x--8----8---8------| 
B|---10---10--x--10--x--10---10--10-----| 
G|---10---10--x--10--x--10---10--10-----| 
D|--------------------------------------| 
A|--------------------------------------| 
E|--------------------------------------| 

02:13 

E7 

e|---12----12---x--12--x--12--12--12----| 
B|---9-----9----x--9---x--9---9---9-----| 
G|---9-----9----x--9---x--9---9---9-----| 
D|--------------------------------------| 
A|--------------------------------------| 
E|--------------------------------------| 

E7 

e|---12----12---x--12--x--12-12-12-12---| 
B|---9-----9----x--9---x--9--9--9--9----| 
G|---9-----9----x--9---x--9--9--9--9----| 
D|--------------------------------------| 
A|--------------------------------------| 
E|--------------------------------------| 

Chorus (x2) 

02:18 

A - E 

e|---------------------------------------| 
B|---14----14--14---9-----10--9----------| 
G|---14----14--14---9-----9---9----------| 
D|---14----14--14---9-----9---9----------| 
A|---------------------------------------| 
E|---------------------------------------|  

G - D 

e|---------------------------------------| 
B|---12--12---7----7--7------------------| 
G|---12--12---7----7--7------------------| 
D|---12--12---7----7--7------------------| 
A|---------------------------------------| 
E|---------------------------------------| 

F - C 

e|---------------------------------------| 
B|---10----10--10---5----6--5------------| 
G|---10----10--10---5----5--5------------| 
D|---10----10--10---5----5--5------------| 
A|---------------------------------------| 
E|---------------------------------------| 

E 

e|---------------------------------------| 
B|---9--9--9--9--9--9--9--9--9--9--------| 
G|---9--9--9--9--9--9--9--9--9--9--------| 
D|---9--9--9--9--9--9--9--9--9--9--------| 
A|---------------------------------------| 
E|---------------------------------------| 

A - E 

e|---------------------------------------| 
B|---14----14--14---9-----10--9----------| 
G|---14----14--14---9-----9---9----------| 
D|---14----14--14---9-----9---9----------| 
A|---------------------------------------| 
E|---------------------------------------|  

G - D 

e|---------------------------------------| 
B|---12--12---7----7--7------------------| 
G|---12--12---7----7--7------------------| 
D|---12--12---7----7--7------------------| 
A|---------------------------------------| 
E|---------------------------------------| 

F - C 

e|---------------------------------------| 
B|---10----10--10---5----6--5------------| 
G|---10----10--10---5----5--5------------| 
D|---10----10--10---5----5--5------------| 
A|---------------------------------------| 
E|---------------------------------------| 

E 

e|---------------------------------------| 
B|---9--9--9--9--9--9--9--9--9--9--------| 
G|---9--9--9--9--9--9--9--9--9--9--------| 
D|---9--9--9--9--9--9--9--9--9--9--------| 
A|---------------------------------------| 
E|---------------------------------------| 

E 

e|---12-12-12--12-12-12--12-12-12--12----| 
B|---9--9--9---9--9--9---9--9--9---9-----| 
G|---9--9--9---9--9--9---9--9--9---9-----| 
D|---9--9--9---9--9--9---9--9--9---9-----| 
A|---------------------------------------| 
E|---------------------------------------| 

End: 

E 

e|---12---------------------------------| 
B|---9----------------------------------| 
G|---9----------------------------------| 
D|---9----------------------------------| 
A|--------------------------------------| 
E|--------------------------------------| 
	  

Full key step upFull key step up
Half key step upHalf key step up
Half key step downHalf key step down
Full key step downFull key step down
Search Paypal
auto scroll beats size up size down change color hide chords drawings
tab show chords e-chords YouTube Clip e-chords hide all tabs e-chords go to top tab