Red Hot Chili Peppers

home > Red Hot Chili Pepp...

Go Robot Tab

Red Hot Chili Peppers

Difficulty: nolevelnolevel

by terr%5Fschmitz

tuner correct add songbook print version text version save to e-mail
chordsukulelecavacokeyboardtabbassdrumsharmonicsflute Guitar Pro
chords

Go Robot

Key:  Cm More
Go Robot Key GmGm
Go Robot Key G#mG#m
Go Robot Key AmAm
Go Robot Key A#mA#m(one step down)
Go Robot Key BmBm(half step down)
Go Robot Key CmCm(original key)
Go Robot Key C#mC#m(half step up)
Go Robot Key DmDm(one step up)
Go Robot Key D#mD#m
Go Robot Key EmEm
Go Robot Key FmFm
Go Robot Key F#mF#m
  		
Intro 

Verse A 

Verse B 

Verse A 

    Cm                  Fm                  Cm                  Fm 

e|---------------------------------------------------------------------------| 
B|--16------------------18------------------16------------------18-----------| 
G|--17------------------17------------------17------------------17-----------| 
D|-(17)----------------(15)----------------(17)----------------(15)----------| 
A|---------------------------------------------------------------------------| 
E|---------------------------------------------------------------------------| 


Verse B 

  Bb                    Ab 

e|-----------18-----------------15-------------------------------------------| 
B|--15-------18---15----16---------16----------------------------------------| 
G|--15------------15----17---------------------------------------------------| 
D|---------------------------------------------------------------------------| 
A|---------------------------------------------------------------------------| 
E|---------------------------------------------------------------------------| 


  Bb                    Ab      slide down while picking 

e|-------------18------------------------------------------------------------| 
B|--15---------18-------16-------16\-----------------------------------------| 
G|--15------------------17---------------------------------------------------| 
D|---------------------------------------------------------------------------| 
A|---------------------------------------------------------------------------| 
E|---------------------------------------------------------------------------| 



Chorus 

         play with surrounding muted strings simultanously - that's funky 

e|-------------------13---13-x-13-----16---------------------x---------------| 
B|-------------------13---13-x-13-----16---------------------x---------------| 
G|-------------------13---13-x-13-----15-------13-15-13b-----x---------------| 
D|------------------------------------------15-------------------------------| 
A|---------------------------------------------------------------------------| 
E|---------------------------------------------------------------------------| 

e|-------------------13---13-x-13-----18-------------------------------------| 
B|-------------------13---13-x-13-----18-------------------------------------| 
G|-------------------13---13-x-13-----17-------13-15-15b-13------------------| 
D|----------------------------------------(15)-------------------------------| 
A|---------------------------------------------------------------------------| 
E|---------------------------------------------------------------------------| 

e|-------------------13---13-x-13-----16---------------------x---------------| 
B|-------------------13---13-x-13-----16---------------------x---------------| 
G|-------------------13---13-x-13-----15----13-15-15-15-13b--x---------------| 
D|---------------------------------------15----------------------------------| 
A|---------------------------------------------------------------------------| 
E|---------------------------------------------------------------------------| 

e|-------------------13---13-x-13-----18-------------------------------------| 
B|-------------------13---13-x-13-----18-------------------------------------| 
G|-------------------13---13-x-13-----17-------13----15b-13------------------| 
D|----------------------------------------(15)-------------------------------| 
A|---------------------------------------------------------------------------| 
E|---------------------------------------------------------------------------| 


repeat Chorus Riff 1x 

Interlude 

Verse A 

  let them all ring 

    Cm                  Fm                

e|---------------------------------------------------------------------------| 
B|--16------------------18---------------------------------------------------| 
G|--17------------------17---------------------------------------------------| 
D|-(17)----------------(15)--------------------------------------------------| 
A|---------------------------------------------------------------------------| 
E|---------------------------------------------------------------------------| 


Verse B 

  Bb                    Ab 

e|-----------18-----------------15-------------------------------------------| 
B|--15-------18---15----16---------16----------------------------------------| 
G|--15------------15----17---------------------------------------------------| 
D|---------------------------------------------------------------------------| 
A|---------------------------------------------------------------------------| 
E|---------------------------------------------------------------------------| 


  Bb                    Ab       slide down while picking 

e|-------------18------------------------------------------------------------| 
B|--15---------18-------16-------16\-----------------------------------------| 
G|--15------------------17---------------------------------------------------| 
D|---------------------------------------------------------------------------| 
A|---------------------------------------------------------------------------| 
E|---------------------------------------------------------------------------| 


Chorus 

e|-------------------13---13-x-13-----16---------------------x---------------| 
B|-------------------13---13-x-13-----16---------------------x---------------| 
G|-------------------13---13-x-13-----15-------13-15-13b-----x---------------| 
D|------------------------------------------15-------------------------------| 
A|---------------------------------------------------------------------------| 
E|---------------------------------------------------------------------------| 

e|-------------------13---13-x-13-----18-------------------------------------| 
B|-------------------13---13-x-13-----18-------------------------------------| 
G|-------------------13---13-x-13-----17-------13-15-15b-13------------------| 
D|----------------------------------------(15)-------------------------------| 
A|---------------------------------------------------------------------------| 
E|---------------------------------------------------------------------------| 

e|-------------------13---13-x-13-----16---------------------x---------------| 
B|-------------------13---13-x-13-----16---------------------x---------------| 
G|-------------------13---13-x-13-----15----13-15-15-15-13b--x---------------| 
D|---------------------------------------15----------------------------------| 
A|---------------------------------------------------------------------------| 
E|---------------------------------------------------------------------------| 

e|-------------------13---13-x-13-----18-------------------------------------| 
B|-------------------13---13-x-13-----18-------------------------------------| 
G|-------------------13---13-x-13-----17-------13----15b-13------------------| 
D|----------------------------------------(15)-------------------------------| 
A|---------------------------------------------------------------------------| 
E|---------------------------------------------------------------------------| 



e|-------------------13---13-x-13-----16---------------------x---------------| 
B|-------------------13---13-x-13-----16---------------------x---------------| 
G|-------------------13---13-x-13-----15-------13-15-13b-----x---------------| 
D|------------------------------------------15-------------------------------| 
A|---------------------------------------------------------------------------| 
E|---------------------------------------------------------------------------| 

e|-------------------13---13-x-13-----18-------------------------------------| 
B|-------------------13---13-x-13-----18-------------------------------------| 
G|-------------------13---13-x-13-----17-------13-15-15b-13------------------| 
D|----------------------------------------(15)-------------------------------| 
A|---------------------------------------------------------------------------| 
E|---------------------------------------------------------------------------| 

e|-------------------13---13-x-13-----16---------------------x---------------| 
B|-------------------13---13-x-13-----16---------------------x---------------| 
G|-------------------13---13-x-13-----15----13-15-15-15-13b--x---------------| 
D|---------------------------------------15----------------------------------| 
A|---------------------------------------------------------------------------| 
E|---------------------------------------------------------------------------| 

e|-------------------13---13-x-13-----18----18---1818-18----18-18------------| 
B|-------------------13---13-x-13-----18----18---1818-18----18-18------------| 
G|-------------------13---13-x-13-----17----17---1717-17----17-17------------| 
D|---------------------------------------------------------------------------| 
A|---------------------------------------------------------------------------| 
E|---------------------------------------------------------------------------| 

Bridge 

e|--8-----8---6---8-----13---11----------------------------------------------| 
B|--8-----8---6---8-----13---11----------------------------------------------| 
G|---------------------------------------------------------------------------| 
D|---------------------------------------------------------------------------| 
A|---------------------------------------------------------------------------| 
E|---------------------------------------------------------------------------| 

or play it like this 

e|--8-----8---6---8-----13---11----------------------------------------------| 
B|--8-----8---6---8-----13---11----------------------------------------------| 
G|--8-----8--(7)--8-----12---10----------------------------------------------| 
D|---------------------------------------------------------------------------| 
A|---------------------------------------------------------------------------| 
E|---------------------------------------------------------------------------| 

repeat with similiar rhythm and chicken scratches (muted strings) in between them 

Verse A 

   let them all ring 

    Cm                  Fm                  Cm                  Fm 

e|---------------------------------------------------------------------------| 
B|--16------------------18------------------16------------------18-----------| 
G|--17------------------17------------------17------------------17-----------| 
D|-(17)----------------(15)----------------(17)----------------(15)----------| 
A|---------------------------------------------------------------------------| 
E|---------------------------------------------------------------------------| 


Verse B 

  Bb                    Ab 

e|-----------18-----------------15-------------------------------------------| 
B|--15-------18---15----16---------16----------------------------------------| 
G|--15------------15----17---------------------------------------------------| 
D|---------------------------------------------------------------------------| 
A|---------------------------------------------------------------------------| 
E|---------------------------------------------------------------------------| 


  Bb                    Ab      slide down while picking 

e|-------------18------------------------------------------------------------| 
B|--15---------18-------16-------16\-----------------------------------------| 
G|--15------------------17---------------------------------------------------| 
D|---------------------------------------------------------------------------| 
A|---------------------------------------------------------------------------| 
E|---------------------------------------------------------------------------| 


Chorus 

         play with surrounding muted strings simultanously - that's funky 

e|-------------------13---13-x-13-----16---------------------x---------------| 
B|-------------------13---13-x-13-----16---------------------x---------------| 
G|-------------------13---13-x-13-----15-------13-15-13b-----x---------------| 
D|------------------------------------------15-------------------------------| 
A|---------------------------------------------------------------------------| 
E|---------------------------------------------------------------------------| 

e|-------------------13---13-x-13-----18-------------------------------------| 
B|-------------------13---13-x-13-----18-------------------------------------| 
G|-------------------13---13-x-13-----17-------13-15-15b-13------------------| 
D|----------------------------------------(15)-------------------------------| 
A|---------------------------------------------------------------------------| 
E|---------------------------------------------------------------------------| 

e|-------------------13---13-x-13-----16---------------------x---------------| 
B|-------------------13---13-x-13-----16---------------------x---------------| 
G|-------------------13---13-x-13-----15----13-15-15-15-13b--x---------------| 
D|---------------------------------------15----------------------------------| 
A|---------------------------------------------------------------------------| 
E|---------------------------------------------------------------------------| 

e|-------------------13---13-x-13-----18-------------------------------------| 
B|-------------------13---13-x-13-----18-------------------------------------| 
G|-------------------13---13-x-13-----17-------13----15b-13------------------| 
D|----------------------------------------(15)-------------------------------| 
A|---------------------------------------------------------------------------| 
E|---------------------------------------------------------------------------| 


repeat Chorus Riff 1x 


Outro 

Rhythm Guitar 

e|--8-----8---6---8-----13---11----------------------------------------------| 
B|--8-----8---6---8-----13---11----------------------------------------------| 
G|---------------------------------------------------------------------------| 
D|---------------------------------------------------------------------------| 
A|---------------------------------------------------------------------------| 
E|---------------------------------------------------------------------------| 

or play it like this 

e|--8-----8---6---8-----13---11----------------------------------------------| 
B|--8-----8---6---8-----13---11----------------------------------------------| 
G|--8-----8--(7)--8-----12---10----------------------------------------------| 
D|---------------------------------------------------------------------------| 
A|---------------------------------------------------------------------------| 
E|---------------------------------------------------------------------------| 

repeat with similiar rhythm and chicken scratches in between them 

Lead Guitar 

bit of wahwah and distortion. play with heavy vibrato and let ring 

e|---------------------------------------------------------------------------| 
B|---------------------------------------------------------------------------| 
G|-----------------------------------------------------------------7b8~~~~---| 
D|---------------------------------------------------------------------------| 
A|--x-x-10~~~~--13~~~~-8~~~~-10b11~~~~-6~~~~---8b10~~~~-5~~~~----------------| 
E|---------------------------------------------------------------------------| 


************************************ 


| x   Dead note 
| g   Grace note 
| (n) Ghost note 
| h   Hammer-on 
| p   Pull-off 
| r   Release 
| >   Accented note 
| t   Tapping 
| b   Bend 
| br  Bend release 
| pb  Pre-bend 
| pbr Pre-bend release 
| /   Slide up 
| \   Slide down 
| ~   Vibrato 
| s   Slap 
| P   Pop 
| PM  Palm mute 
| TR  Trill 
| N   Tremolo 

************************************ 
	  

Full key step upFull key step up
Half key step upHalf key step up
Half key step downHalf key step down
Full key step downFull key step down
Search Paypal
auto scroll beats size up size down change color hide chords drawings
tab show chords e-chords YouTube Clip e-chords hide all tabs e-chords go to top tab