Red Hot Chili Peppers

home > Red Hot Chili Pepp...

Funky Monks Acoustic Tab

Red Hot Chili Peppers

Difficulty: IntermediateIntermediate

by hobbittt

tuner correct add songbook print version text version save to e-mail
chordsukulelecavacokeyboardtabbassdrumsharmonicsflute Guitar Pro
chords

Funky Monks Acoustic

  		[email protected] 
 
 
Funky Monks (acoustic at vpro 1991) 
 
This is what john playes at the vpro interview in 1991 in Amsterdam.  
 
E------------------------------------------------------------------------ 
H-------------3b--------3-3-3-----------------3b-------5b-5-----3-------- 
G-------------3b--------3-3-3-----------------3b-------5b-5-----3-------- 
D-------------------5-------------5-----3h5---------5-------------------- 
A------------------------------------------------------------------------ 
E----0h3----------------------------------------------------------------- 
 
  
E------------------------------------------------------------------------ 
H-------------3b--------3-3-3-------------------------------------------- 
G-------------3b--------3-3-3h5p3---------------------------------------- 
D-------------------5-----------------5----3h5p3------------------------- 
A----------------------------------------------------5-----3p1----------- 
E----1h3----------------------------------------------------------1--1--- 
 
 

	  

Search Paypal
auto scroll beats size up size down change color hide chords drawings
tab show chords e-chords YouTube Clip e-chords hide all tabs e-chords go to top tab