Red Hot Chili Peppers

home > Red Hot Chili Pepp...

Especially in michigan Tab

Red Hot Chili Peppers

Difficulty: nolevelnolevel

by europeu

tuner correct add songbook print version text version save to e-mail
chordsukulelecavacokeyboardtabbassdrumsharmonicsflute Guitar Pro
chords

Especially in michigan

Year: 2006 - Album: Stadium Arcadium

  		Fig. 1 (Light Dist.) 
E----------------------------------------------------------------------------------------------------------- 
B----------------------------------------------------------------------------------------------------------- 
G------------------------------------------------------------------------------------------------9h11--9---- 
D--9h11---11--11--11----11--11----11--11----11----11--11--9h11---11--11--11----11--11----11--11------------- 
A----------------------------------------------------------------------------------------------------------- 
D----------------------------------------------------------------------------------------------------------- 
 
E----------------------------------------------------------------------------------------------------------- 
B----------------------------------------------------------------------------------------------------------- 
G------------------------------------------------------------------------------9h11--11fb--r--9h11--9------- 
D--9h11---11--11--11----11--11----11--11----11----11--11--9h11---11--11--11--------------------------------- 
A----------------------------------------------------------------------------------------------------------- 
D----------------------------------------------------------------------------------------------------------- 
 
Fig. 2 
E------------------------------------------------------------------------------------------------------------------ 
B---------14-----14------------14-----14------------14------------14-----14------------14-----14------------14----- 
G--11-------------------11-------------------11------------11-------------------11-------------------11------------ 
D------------------------------------------------------------------------------------------------------------------ 
A------------------------------------------------------------------------------------------------------------------ 
D------------------------------------------------------------------------------------------------------------------ 
 
E------------------------------------------------------------------------------------------------------------------ 
B---------14-----14------------14-----14------------14------------14-----14------------14-----14------------14----- 
G--11-------------------11-------------------11------------11-------------------11-------------------11------------ 
D------------------------------------------------------------------------------------------------------------------ 
A------------------------------------------------------------------------------------------------------------------ 
D------------------------------------------------------------------------------------------------------------------ 
 
Fig. 3 
E----------------14-------------------14-------------------14-------------------14-------------------14------------ 
B---------14-------------------14-------------------14-------------------14-------------------14------------------- 
G--11-------------------11-------------------11-------------------11-------------------11-------------------------- 
D------------------------------------------------------------------------------------------------------------------ 
A------------------------------------------------------------------------------------------------------------------ 
D------------------------------------------------------------------------------------------------------------------ 
 
E----------------14-------------------14-------------------14-------------------14--------------------------------- 
B---------14-------------------14-------------------14-------------------14---------------------------------------- 
G--11-------------------11-------------------11-------------------11----------------------------------------------- 
D------------------------------------------------------------------------------------------------------------------ 
A------------------------------------------------------------------------------------------------------------------ 
D------------------------------------------------------------------------------------------------------------------ 
 
Fig. 4 (clean) 
E--9--------------------9--------------------9-------------7--------------------7--------------------7------------- 
B----------------10-------------------10---------------------------------9--------------------9-------------------- 
G---------11-------------------11-------------------11------------9--------------------9--------------------------- 
D------------------------------------------------------------------------------------------------------------------ 
A------------------------------------------------------------------------------------------------------------------ 
D------------------------------------------------------------------------------------------------------------------ 
 
E--9--------------------9--------------------9-------------10-------------------10-------------------10------------ 
B----------------10-------------------10---------------------------------10-------------------10------------------- 
G---------11-------------------11---------------------------------11-------------------11-------------------------- 
D------------------------------------------------------------------------------------------------------------------ 
A------------------------------------------------------------------------------------------------------------------ 
D------------------------------------------------------------------------------------------------------------------ 
 
E--9--------------------9--------------------9-------------7--------------------7--------------------7------------- 
B----------------10-------------------10---------------------------------9--------------------9-------------------- 
G---------11-------------------11---------------------------------9--------------------9--------------------------- 
D------------------------------------------------------------------------------------------------------------------ 
A------------------------------------------------------------------------------------------------------------------ 
D------------------------------------------------------------------------------------------------------------------ 
 
E--9--------------------9--------------------9-------------14-------------------14-------------------14------------ 
B----------------10-------------------10---------------------------------15-------------------15------------------- 
G---------11-------------------11---------------------------------14-------------------14-------------------14----- 
D------------------------------------------------------------------------------------------------------------------ 
A------------------------------------------------------------------------------------------------------------------ 
D------------------------------------------------------------------------------------------------------------------ 
 
E---------14-------------------14-------------------14-----| 
B--15-------------------15-------------------15------------| 
G----------------14-------------------14-------------------| 
D----------------------------------------------------------| 
A----------------------------------------------------------| 
D----------------------------------------------------------| 
 
 
 
Fig. 5 (Light dist) 
___________________________________ 
| 
E------------------------------------------------------------------------------------------------------------------ 
B---------14-----14------------14-----14------------14------------14-----14------------14-----14------------14----- 
G--11-------------------11-------------------11------------11-------------------11-------------------11------------ 
D------------------------------------------------------------------------------------------------------------------ 
A------------------------------------------------------------------------------------------------------------------ 
D------------------------------------------------------------------------------------------------------------------ 
| 
E------------------------------------------------------------------------------------------------------------------ 
B------------------------------------------------------------------------------------------------------------------ 
G------------------------------------------------------------------------------------------------------------------ 
D-9fb--r--fb--r--fb--r--fb--r--fb--r--fb--r--fb--r--fb--r--fb--r--fb--r---fb--r--fb-----------9fb--r--fb----------- 
A------------------------------------------------------------------------------------------------------------------ 
D------------------------------------------------------------------------------------------------------------------ 
|__________________________________ 
 
__________________________________ 
| 
E------------------------------------------------------------------------------------------------------------------ 
B---------14-----14------------14-----14------------14------------14-----14------------14-----14------------14----- 
G--11-------------------11-------------------11------------11-------------------11-------------------11------------ 
D------------------------------------------------------------------------------------------------------------------ 
A------------------------------------------------------------------------------------------------------------------ 
D------------------------------------------------------------------------------------------------------------------ 
| 
E------------------------------------------------------------------------------------------------------------------ 
B------------------------------------------------------------------------------------------------------------------ 
G------------------------------------------------------------------------------------------------------------------ 
D--(9fb)--(sustain, vibrato and feedback)-------------------------------------------------------------------------- 
A------------------------------------------------------------------------------------------------------------------ 
D------------------------------------------------------------------------------------------------------------------ 
|_________________________________ 
 
Fig. 6 
E------------------------------------------------------------------------------------------------------------------ 
B------------------------------------------------------------------------------------------------------------------ 
G------------------------------------------------------------------------------------------------------------------ 
D--(9fb)--(sustain, vibrato and feedback)-------------------------------------------------------------------------- 
A------------------------------------------------------------------------------------------------------------------ 
D------------------------------------------------------------------------------------------------------------------ 
 
E------------------------------------------------------------------------------------------------------------------ 
B------------------------------------------------------------------------------------------------------------------ 
G------------------------------------------------------------------------------------------------------------------ 
D--(9fb)--(sustain, vibrato and feedback)-------------------------------------------------------------------------- 
A------------------------------------------------------------------------------------------------------------------ 
D------------------------------------------------------------------------------------------------------------------ 
 
Fig. 7 
E---18p14------18p14------18p14------18p14------18p14------18p14------18p14------18p14------18p14------18p14------- 
B----------14---------14---------14---------14---------14---------14---------14---------14---------14---------14--- 
G------------------------------------------------------------------------------------------------------------------ 
D------------------------------------------------------------------------------------------------------------------ 
A------------------------------------------------------------------------------------------------------------------ 
D------------------------------------------------------------------------------------------------------------------ 
 
E--18p14------18p14------18p14------18p14------18p14------18p14------18p14------18p14------18p14------18--------\-- 
B---------14---------14---------14---------14---------14---------14---------14---------14---------14--------------- 
G------------------------------------------------------------------------------------------------------------------ 
D------------------------------------------------------------------------------------------------------------------ 
A------------------------------------------------------------------------------------------------------------------ 
D------------------------------------------------------------------------------------------------------------------ 
 
Fig. 8 (Dist.) 
E------------------------------------------------------------------------------------------------------------------------ 
B------------------------------------------------------------------------------------------------------------------------ 
G------------------------------------------------------------------------------------------------------------------------ 
D------------------------------------------------------------------------------------------------------------------------ 
A------------------------------------------------------------------------------------------------------------------------ 
D-/7-------7---7-----7---7---7---7--\2---2---2-----2---2---2---2--/4---4---4-----4---4---4---4--\0---0---0-----0---0---0- 
 
E------------------------------------------------------------------------------------------------14-----14-----14---14--- 
B------------------------------------------------------------------------------------------------15-----15-----15---15--- 
G------------------------------------------------------------------------------------------------14-----14-----14---14--- 
D------------------------------------------------------------------------------------------------------------------------ 
A------------------------------------------------------------------------------------------------------------------------ 
D-/7---7---7---7-----7---7---7---7--\2---2---2-----2---2---2---2--/4---4---4-----4---4---4---4--------------------------- 
 
Fig. 9 
_________________________________ 
| 
E------------------------------------------------------------------------------------------------------------------------ 
B------------------------------------------------------------------------------------------------------------------------ 
G------------------------------------------------------------------------------------------------------------------------ 
D------------------------------------------------------------------------------------------------------------------------ 
A------------------------------------------------------------------------------------------------------------------------ 
D-/7-------7---7-----7---7---7---7--\2---2---2-----2---2---2---2--/4---4---4-----4---4---4---4--\0---0---0-----0---0---0- 
| 
E------------------------------------------------------------------------------------------------------------------------ 
B-/14------14--14----14--14--14--14-\9---9---9-----9---9---9---9--/10--10--10----10--10--10--10-\7---7---7-----7---7---7- 
G------------------------------------------------------------------------------------------------------------------------ 
D------------------------------------------------------------------------------------------------------------------------ 
A------------------------------------------------------------------------------------------------------------------------ 
D------------------------------------------------------------------------------------------------------------------------ 
| 
E-/12------12--12----12--12--12--12-\7---7---7-----7---7---7---7--/9---9---9-----9---9---9---9--/5---5---5-----5---5---5- 
B------------------------------------------------------------------------------------------------------------------------ 
G------------------------------------------------------------------------------------------------------------------------ 
D------------------------------------------------------------------------------------------------------------------------ 
A------------------------------------------------------------------------------------------------------------------------ 
D------------------------------------------------------------------------------------------------------------------------ 
|________________________________ 
 
_________________________________ 
| 
E------------------------------------------------------------------------------------------------14-----14-----14---14--- 
B------------------------------------------------------------------------------------------------15-----15-----15---15--- 
G------------------------------------------------------------------------------------------------14-----14-----14---14--- 
D------------------------------------------------------------------------------------------------------------------------ 
A------------------------------------------------------------------------------------------------------------------------ 
D-/7---7---7---7-----7---7---7---7--\2---2---2-----2---2---2---2--/4---4---4-----4---4---4---4--------------------------- 
| 
E------------------------------------------------------------------------------------------------------------------------ 
B-/14------14--14----14--14--14--14-\9---9---9-----9---9---9---9--/10--10--10----10--10--10--10-\19-----19-----19---19--- 
G------------------------------------------------------------------------------------------------------------------------ 
D------------------------------------------------------------------------------------------------------------------------ 
A------------------------------------------------------------------------------------------------------------------------ 
D------------------------------------------------------------------------------------------------------------------------ 
| 
E-/12------12--12----12--12--12--12-\7---7---7-----7---7---7---7--/9---9---9-----9---9---9---9--/14-----14-----14---14--- 
B------------------------------------------------------------------------------------------------------------------------ 
G------------------------------------------------------------------------------------------------------------------------ 
D------------------------------------------------------------------------------------------------------------------------ 
A------------------------------------------------------------------------------------------------------------------------ 
D------------------------------------------------------------------------------------------------------------------------ 
|________________________________ 
 
Fig. 10 (solo backing) (gtr 2) 
E------------------------------------------------------------------------------------------------------------------------ 
B------------------------------------------------------------------------------------------------------------------------ 
G---------------6-------6----------------------9-------9--------------------13------13--------------------16------16----- 
D--4--------4-------4-------4--------4/7---7-------7-------7------7/11--11------11------11-----11/14--14------14------14- 
A--x--------x-------x-------x--------x-----x-------x-------x------x-----x-------x-------x------x------x-------x-------x-- 
D--4--------4-------4-------4--------4/7---7-------7-------7------7/11--11------11------11-----11/14--14------14------14- 
 
E------------------------------------------------------------------------------------------------------------------------ 
B------------------------------------------------------------------------------------------------------------------------ 
G---------------6-------6----------------------9-------9--------------------13------13--------------------16------16----- 
D--4--------4-------4-------4--------4/7---7-------7-------7------7/11--11------11------11-----11/14--14------14------14- 
A--x--------x-------x-------x--------x-----x-------x-------x------x-----x-------x-------x------x------x-------x-------x-- 
D--4--------4-------4-------4--------4/7---7-------7-------7------7/11--11------11------11-----11/14--14------14------14- 
 
 
E------------------------------------------------------------------------------------------------------------------------ 
B------------------------------------------------------------------------------------------------------------------------ 
G---------------18------18---------------------13------13-------------------16------16--------------------11------11----- 
D--14/16----16------16------16-------16\11-11------11------11-----11/14-14------14------14-----14\9---9-------9-------9-- 
A--x--------x-------x-------x--------x-----x-------x-------x------x-----x-------x-------x------x------x-------x-------x-- 
D--14/16----16------16------16-------16\11-11------11------11-----11/14-14------14------14-----14\9---9-------9-------9-- 
 
E------------------------------------------------------------------------------------------------------------------------ 
B------------------------------------------------------------------------------------------------------------------------ 
G---------------18------18---------------------13------13-------------------16------16--------------------11------11----- 
D--14/16----16------16------16-------16\11-11------11------11-----11/14-14------14------14-----14\9---9-------9-------9-- 
A--x--------x-------x-------x--------x-----x-------x-------x------x-----x-------x-------x------x------x-------x-------x-- 
D--14/16----16------16------16-------16\11-11------11------11-----11/14-14------14------14-----14\9---9-------9-------9-- 
 
 
Fig. 11 (solo) (gtr 1) 
E------------------------------------------------------------------9----------------------------------12-------/14------- 
B---------------------------------------------------------10---------------12fb------12-------9-------------------------- 
G--9---h---11----9-----11fb--------r------9---h---11--------------------------------------------------------------------- 
D------------------------------------------------------------------------------------------------------------------------ 
A------------------------------------------------------------------------------------------------------------------------ 
D------------------------------------------------------------------------------------------------------------------------ 
 
E--12------9------9------9------9-------9------9-------9------9-------9------9-------9----------------------------------- 
B-------------------------------12fb-----------12fb-----------12fb-----------12fb------------------9------12------9------ 
G-------------------------------------------------------------------------------------------11--------------------------- 
D------------------------------------------------------------------------------------------------------------------------ 
A------------------------------------------------------------------------------------------------------------------------ 
D------------------------------------------------------------------------------------------------------------------------ 
 
E-------------------9----------------------------12------------------------12----------12----------12--------12/14---14-- 
B---------9----------------9-----------9----------------9-----------9---------------------------------------------------- 
G--11----------11---------------11----------11---------------11-----------------11----------11----------11--------------- 
D------------------------------------------------------------------------------------------------------------------------ 
A------------------------------------------------------------------------------------------------------------------------ 
D------------------------------------------------------------------------------------------------------------------------ 
 
E--14--/--16------16---16--p--14------16------16---16--p--14------16------16---16--h--17---16---14--------14------------- 
B----------------------------------------------------------------------------------------------------17fb------17fb--17-- 
G------------------------------------------------------------------------------------------------------------------------ 
D------------------------------------------------------------------------------------------------------------------------ 
A------------------------------------------------------------------------------------------------------------------------ 
D------------------------------------------------------------------------------------------------------------------------ 
 
Fig. 12 
________________________ 
| (gtr 1) 
E------------------------------------------------------------------------------------------------------------------------ 
B--14--------------------------------14\12------------------------12\10------------------------10\9------------9------10- 
G------------------------------------------------------------------------------------------------------------------------ 
D------------------------------------------------------------------------------------------------------------------------ 
A------------------------------------------------------------------------------------------------------------------------ 
D------------------------------------------------------------------------------------------------------------------------ 
| (gtr 2) 
E----------14---------------14-------17------16------14-------------------------16-----------------------------14-------- 
B--14--------------14----------------------------------------17----------17------------17---------------15------------15- 
G-----------------------------------------------------------------16--------------------------16\14---------------------- 
D------------------------------------------------------------------------------------------------------------------------ 
A------------------------------------------------------------------------------------------------------------------------ 
D------------------------------------------------------------------------------------------------------------------------ 
|_______________________ 
 
________________________ 
| (gtr 1) 
E------------------------------------------------------------------------------------------------------------------------ 
B--9----qb-----r--------------------------------------------------------------------------------------------------------- 
G-----------------------------------------------------------------9------9fb--------9--------------------------9------11- 
D------------------------------------------------------------11----------------------------------11---------------------- 
A------------------------------------------------------------------------------------------------------------------------ 
D------------------------------------------------------------------------------------------------------------------------ 
| (gtr 2) 
E----------14---------------14-------17------16------14-------------------------16-h-17--16--------------------12-----14- 
B--14--------------14----------------------------------------17----------17-----------------------------15--------------- 
G-----------------------------------------------------------------16--------------------------16\14---------------------- 
D------------------------------------------------------------------------------------------------------------------------ 
A------------------------------------------------------------------------------------------------------------------------ 
D------------------------------------------------------------------------------------------------------------------------ 
| (gtr 3) 
E------------------------------------------------------------------------------------------------------------------------ 
B------------------------------------------------------------------------------------------------------------------------ 
G--11--p--9--h--11------------------------------------------------------------------------------------------------------- 
D------------------------------------------------------------------------------------------------------------------------ 
A------------------------------------------------------------------------------------------------------------------------ 
D------------------------------------------------------------------------------------------------------------------------ 
|_______________________ 
 
________________________ 
| (gtr 2, Clean) 
E------------------------------------------------------------------------------------------------------------------ 
B---------14-----14------------14-----14------------14------------14-----14------------14-----14------------14----- 
G--11-------------------11-------------------11------------11-------------------11-------------------11------------ 
D------------------------------------------------------------------------------------------------------------------ 
A------------------------------------------------------------------------------------------------------------------ 
D------------------------------------------------------------------------------------------------------------------ 
| (gtr 3) 
E------------------------------------------------------------------------------------------------------------------ 
B------------------------------------------------------------------------------------------------------------------ 
G------------------------------------------------------------------------------------------------------------------ 
D--(11)---(sustain with feedback and vibrato)---------------------------------------------------------------------- 
A------------------------------------------------------------------------------------------------------------------ 
D------------------------------------------------------------------------------------------------------------------ 
|_______________________ 
________________________ 
|  
E------------------------------------------------------------------------------------------------------------------ 
B---------14-----14------------14-----14------------14------------14-----14------------14-----14------------14----- 
G--11-------------------11-------------------11------------11-------------------11-------------------11------------ 
D------------------------------------------------------------------------------------------------------------------ 
A------------------------------------------------------------------------------------------------------------------ 
D------------------------------------------------------------------------------------------------------------------ 
|  
E------------------------------------------------------------------------------------------------------------------ 
B------------------------------------------------------------------------------------------------------------------ 
G------------------------------------------------------------------------------------------------------------------ 
D--(11)---(sustain with feedback and vibrato)---------------------------------------------------------------------- 
A------------------------------------------------------------------------------------------------------------------ 
D------------------------------------------------------------------------------------------------------------------ 
|________________________ 
 
________________________ 
|  
E------------------------------------------------------------------------------------------------------------------ 
B---------14-----14------------14-----14------------14------------14-----14------------14-----14------------14----- 
G--11-------------------11-------------------11------------11-------------------11-------------------11------------ 
D------------------------------------------------------------------------------------------------------------------ 
A------------------------------------------------------------------------------------------------------------------ 
D------------------------------------------------------------------------------------------------------------------ 
|  
E---18p14------18p14------18p14------18p14------18p14------18p14------18p14------18p14------18p14------18p14------- 
B----------14---------14---------14---------14---------14---------14---------14---------14---------14---------14--- 
G------------------------------------------------------------------------------------------------------------------ 
D------------------------------------------------------------------------------------------------------------------ 
A------------------------------------------------------------------------------------------------------------------ 
D------------------------------------------------------------------------------------------------------------------ 
|________________________ 
________________________ 
|  
E------------------------------------------------------------------------------------------------------------------ 
B---------14-----14------------14-----14------------14------------14-----14------------14-----14------------14----- 
G--11-------------------11-------------------11------------11-------------------11-------------------11------------ 
D------------------------------------------------------------------------------------------------------------------ 
A------------------------------------------------------------------------------------------------------------------ 
D------------------------------------------------------------------------------------------------------------------ 
|  
E--18p14------18p14------18p14------18p14------18p14------18p14------18p14------18p14------18p14------18--------\-- 
B---------14---------14---------14---------14---------14---------14---------14---------14---------14--------------- 
G------------------------------------------------------------------------------------------------------------------ 
D------------------------------------------------------------------------------------------------------------------ 
A------------------------------------------------------------------------------------------------------------------ 
D------------------------------------------------------------------------------------------------------------------ 
|________________________ 
 
Fig. 13 
_________________________ 
| 
E------------------------------------------------------------------------------------------------------------------------ 
B------------------------------------------------------------------------------------------------------------------------ 
G------------------------------------------------------------------------------------------------------------------------ 
D------------------------------------------------------------------------------------------------------------------------ 
A------------------------------------------------------------------------------------------------------------------------ 
D-/7-------7---7-----7---7---7---7--\2---2---2-----2---2---2---2--/4---4---4-----4---4---4---4--\0---0---0-----0---0---0- 
| 
E--------------------------------------------16--16hb-16-----------------------14---------------------------------------- 
B------17fb-17--14--17fb---17----14------17---------------17------------------------------------------15--15fb-15-------- 
G------------------------------------16-----------------------16-------14--16fb----r-p14-----------14-------------14----- 
D------------------------------------------------------------------16--------------------16-16--16-------------------16-- 
A------------------------------------------------------------------------------------------------------------------------ 
D------------------------------------------------------------------------------------------------------------------------ 
|________________________ 
_________________________ 
| 
E------------------------------------------------------------------------------------------------14-----14-----14---14--- 
B------------------------------------------------------------------------------------------------15-----15-----15---15--- 
G------------------------------------------------------------------------------------------------14-----14-----14---14--- 
D------------------------------------------------------------------------------------------------------------------------ 
A------------------------------------------------------------------------------------------------------------------------ 
D-/7---7---7---7-----7---7---7---7--\2---2---2-----2---2---2---2--/4---4---4-----4---4---4---4--------------------------- 
| 
E--------------------------------------------16--16hb-16----------------------------------------------------------------- 
B------17fb-17--14--17fb---17----14------17---------------17----------------14------------------------------------------- 
G------------------------------------16-----------------------16-----13fb--------13fb----r--11--11----------------------- 
D------------------------------------------------------------------------------------------------------------------------ 
A------------------------------------------------------------------------------------------------------------------------ 
D------------------------------------------------------------------------------------------------------------------------ 
|________________________ 
_________________________ 
| 
E--14-----14-----14---14------------------------------------------------------------------------------------------------- 
B--15-----15-----15---15------------------------------------------------------------------------------------------------- 
G--14-----14-----14---14------------------------------------------------------------------------------------------------- 
D------------------------------------------------------------------------------------------------------------------------ 
A------------------------------------------------------------------------------------------------------------------------ 
D-----------------------------4------------------------------------------------------------------------------------------ 
| 
E------------------------------------------------------------------------------------------------------------------------ 
B------------------------------------------------------------------------------------------------------------------------ 
G------------------------------------------------------------------------------------------------------------------------ 
D-----------------------------11----------------------------------------------------------------------------------------- 
A------------------------------------------------------------------------------------------------------------------------ 
D------------------------------------------------------------------------------------------------------------------------ 
|_______________________ 

	  

Search Paypal
auto scroll beats size up size down change color hide chords drawings
tab show chords e-chords YouTube Clip e-chords hide all tabs e-chords go to top tab