Red Hot Chili Peppers

Can't Stop

Red Hot Chili Peppers

tabs Expert expert

by  VEJOTA

save to print version add songbook text version e-mail correct tuner
chordsukulelecavacokeyboardtabbassdrumsharmonicaflute Guitar Pro
close

there isn't a video lesson for this song

chords

Can't Stop

Year: 2002 - Album: By The Way

	  		InTrO: 
D|---0^2--0^2---0^2---0^2---| 

Verso:  
   (Em,D,Bm,C) 
  
 B|:------3--5-------3--5-----------3--5---------3-5--------3-5-------3-5------3-5--------3--5| 
 G|:------------------------------------------------------------------------------------------| 
 D|:---22--------222-----------2220----------000----------------------------------------------| 
 A|:--------------------------------------------------5552------222-------2223--------333-----| 

Refrão: 
| G | D | Bm | C | x 3 
| G | D | Bm | C | 

Refrão 

Ponte: (não deixe as notas soarem) 
e|--7--7--7--7--5--5--5--7--2--2--5--5--3--3--3--5------| 
B|--5--5--5--5--3--3--3--x--0--0--0--x--1--1--1--3------| 
G|-----------------------7-----------5------------------| 

e|--7--7--7--8--5--5--5--7--2--2--2--2--3--3--3--5-| 
B|--5--5--5--5--3--3--3--5--0--0--0--0--1--1--1--3-| 

Toque essa parte de novo com algumas variações.  
                              						   
Solo:                                     
e|--10b-----------10b---|--10-------10---7----| 
                                                                     
e|--7-----------------|--10b-------12br---------|--10------------10br--| 
b|-------------8------|-------------------------|----------------------| 
                                                                     
e|--7-------------7-----|--------------------|-----------------------| 
b|----------------------|---8-----------------|----------------------| 

		  

Full key step upFull key step up
Half key step upHalf key step up
Half key step downHalf key step down
Full key step downFull key step down
auto scroll beats size up size down change color hide chords drawings
tab show chords e-chords YouTube Clip e-chords hide all tabs e-chords go to top tab

share