Red Hot Chili Peppers

home > Red Hot Chili Pepp...

Cabron Tab

Red Hot Chili Peppers

Difficulty: ExpertExpert

by SnIpEr666

tuner correct add songbook print version text version save to e-mail
chordsukulelecavacokeyboardtabbassdrumsharmonicsflute Guitar Pro
chords

Cabron

Year: 2002 - Album: By The Way

Key:  D More
Cabron Key AA
Cabron Key A#A#
Cabron Key BB
Cabron Key CC(one step down)
Cabron Key C#C#(half step down)
Cabron Key DD(original key)
Cabron Key D#D#(half step up)
Cabron Key EE(one step up)
Cabron Key FF
Cabron Key F#F#
Cabron Key GG
Cabron Key G#G#
  		Música: Cabron 
Artista: Red Hot Chili Peppers 
 
D     Bm7                     2X                
e|----10-----7-----|-----------------|--5-| 
B|----10-----7-----|-----7-----7-----|--7-| 
G|----11-----7-----|-------7----7--7-|--7-| 
D|----12-----7-----|---------7---7---|--7-| 
A|----12-----9-----|---5-------------|--5-| 
E|----10-----7-----|-----------------|----| 
 
 
                     D                       Bm7   
e|---2--0------------2--|---0-----------------2----| 
B|---------3--2--3---3--|------3--2--0--------3----| 
G|-------------------2--|---------------2-----4----| 
D|----------------------|---------------------4----| 
A|----------------------|---------------------2----| 
E|----------------------|---------------------2----| 
 
Cabron  Cabron 
Cabron  Cabron 
 
I see you in the park 
You're always wearing 
Dodger blue 
Mad Doggin'me and 
Anyone frow my other crew 
 
G                      A 
I am small but i am strong     | 
I'll get it on with you        | 
D              Bm              | 
If you want me to              | 
What else can i do             | 
                               | 
Everyone would take a cue      | 
From anything you do           | 
If you want them to            | 
What else can they do          | 
                               | 
I don't want to fight          | 
I want to get along with you   | 
This time of night's           | 
For singin'songs               | 
About the local news           | 
 
Cabron  cabron 
cabron  cabron 
 
I will come around and make peace 
get down have a barbeque 
let's keep away 
and do eletric boogiloo  
 
 
         D                       Bm 
|-------10--------------|---------7-------------| 
|-------10--------------|---------7-------------| 
|-------11--------------|---------7-------------| 
|-------12--------------|-----------------------| 
|-----------------------|-----------------------| 
|-----------------------|-----------------------| 
 
 
|--9/---14------------|--9/---7--------------|--9/---3-------| 
|---------------------|----------------------|---------------| 
|---------------------|----------------------|---------------| 
|---------------------|----------------------|---------------| 
|---------------------|----------------------|---------------| 
|---------------------|----------------------|---------------| 
 
Mais uma do Luis Henrique Nunes 
	  

Full key step upFull key step up
Half key step upHalf key step up
Half key step downHalf key step down
Full key step downFull key step down
Search Paypal
auto scroll beats size up size down change color hide chords drawings
tab show chords e-chords YouTube Clip e-chords hide all tabs e-chords go to top tab