Red Hot Chili Peppers

home > Red Hot Chili Pepp...

Bicycle song Tab

Red Hot Chili Peppers

Difficulty: BeginnerBeginner

by europeu

tuner correct add songbook print version text version save to e-mail
chordsukulelecavacokeyboardtabbassdrumsharmonicsflute Guitar Pro
chords

Bicycle song

  		INTRO & VERSE: 
e--------------| 
B-7777----3--3-| 
G-7777----4--4-| 
D-7777--4-4--4-| 
A-5555----2--2-| 
E--------------| 
 
e--------------| 
B-7777----3--3-| 
G-7777----4--4-| 
D-7777--4-4--4-| 
A-5555----2--2-| 
E--------------| 
 
e--------------| 
B-3333----7--7-| 
G-4444----7--7-| 
D-4444--2-7--7-| 
A-2222----5--5-| 
E--------------| 
 
e--------------| 
B-3333----7--7-| 
G-4444----7--7-| 
D-4444--2-7--7-| 
A-2222----5--5-| 
E--------------| 
 
Chorus: 
 
  G          C          D 
e--------------------------------------------| 
B-----------------5--------------------------| 
G------4------------5-------7-9-9/11-11-9--7-| 
D--------5-----55-----5---7------------------| 
A---55-----5-3----------5--------------------| 
E-3------------------------------------------| 
 
e--------------------------------------------| 
B-----------------5--------------------------| 
G------4------------5-------7-9-9/11-11-9--7-| 
D--------5-----55-----5---7------------------| 
A---55-----5-3----------5--------------------| 
E-3------------------------------------------| 
 
e--------------------------------------------| 
B-----------------5--------------------------| 
G------4------------5-------7-9-9/11-11-9--7-| 
D--------5-----55-----5---7------------------| 
A---55-----5-3----------5--------------------| 
E-3------------------------------------------| 
 
  G          C          D 
e-----------------------------------------| 
B-----------------5-----------7---7---7---| 
G------4------------5-------7---7---7--7--| 
D--------5-----55-----5---7------7---7--7-| 
A---55-----5-3----------5-----------------| 
E-3---------------------------------------| 
 
POST-Chorus: 
e-----------12--------5----------------| 
B-12-121212-12--5-555-5--7-7--7--77777-| 
G-12-121212-12--5-555-5--7-7--7--77777-| 
D-12-121212-----5-555----7-7--7--77777-| 
A-10-101010-----7-777----5-5--5--55555-| 
E--------------------------------------| 
 
e-----------12--------5----------99997-| 
B-12-121212-12--5-555-5--7-7--7--77777-| 
G-12-121212-12--5-555-5--7-7--7--77777-| 
D-12-121212-----5-555----7-7--7--77777-| 
A-10-101010-----7-777----5-5--5--55555-| 
E--------------------------------------| 
 
e-----------12--------5----------------| 
B-12-121212-12--5-555-5--7-7--7--77777-| 
G-12-121212-12--5-555-5--7-7--7--77777-| 
D-12-121212-----5-555----7-7--7--77777-| 
A-10-101010-----7-777----5-5--5--55555-| 
E--------------------------------------| 
 
e-----------12--------5-----~~~-| 
B-12-121212-12--5-555-5--7-7~~~-| 
G-12-121212-12--5-555-5--7-7~~~-| 
D-12-121212-----5-555----7-7~~~-| 
A-10-101010-----7-777----5-5~~~-| 
 
SOLO (first time I've ever tabbed a guitar solo so be gentle lol): 
e----------------------------------------| 
B------7~~-5-------------7~~-5-----------| 
G--7~~------7-7-44~~-7~~------7-7-44~~-7-| 
D----------------------------------------| 
A----------------------------------------| 
E----------------------------------------| 
 
e------------------------------------| 
B-------------3----3------------3----| 
G--0~~-6~~-8~--------0~~-6~~--8~-----| 
D---------------44-------------------| 
A----------------------------------7-| 
E------------------------------------| 
 
e----------------------------------------| 
B------7~~-5-------------7~~-5-----------| 
G--7~~------7-7-44~~-7~~------7-7-44~~-7-| 
D----------------------------------------| 
A----------------------------------------| 
E----------------------------------------| 
 
e------------------------------------9-| 
B-------------3----3-------------7h9-9-| 
G--0~~-6~~-8~--------0~~-6~~--8~-----9-| 
D---------------44-------------------9-| 
A------------------------------------7-| 
E--------------------------------------| 
 
e-12-----12-----11--9-| 
B-11h12--11h12--11--9-| 
G-12-----12-----11--9-| 
D-12-----12-----11--9-| 
A-10-----10-----9---7-| 
E---------------------| 
 
 
 

	  

Full key step upFull key step up
Half key step upHalf key step up
Half key step downHalf key step down
Full key step downFull key step down
Search Paypal
auto scroll beats size up size down change color hide chords drawings
tab show chords e-chords YouTube Clip e-chords hide all tabs e-chords go to top tab