Red Hot Chili Peppers

home > Red Hot Chili Pepp...

All Around The World Tab

Red Hot Chili Peppers

Difficulty: ExpertExpert

by jarod+hay

tuner correct add songbook print version text version save to e-mail
chordsukulelecavacokeyboardtabbassdrumsharmonicsflute Guitar Pro
chords

All Around The World

  		G--------------------7--9--9--7--9--9--7--9--9-------------- 
D-----------------------------------------------9--8--7--5-- 
A----------------------------------------------------------- 
E--0----0--0--0--0------------------------------------------ 


G--7--9--9--7--9--9--7--9--9------------------- 
D-----------------------------9--8--7--5------- 
A-----------------------------------------7--5- 
E---------------------------------------------- 


G--7--9--9--7--9--9--7--9--9------------------- 
D-----------------------------9--8--7--5------- 
A---------------------------------------------- 
E---------------------------------------------- 


G--7--9--9--7--9--9--7--9--9-------------------- 
D-----------------------------9--8--7--5-------- 
A------------------------------------------7--5- 
E----------------------------------------------- 


G--7--9--9--7--9--9--7--9--9-------------------- 
D-----------------------------9--8--7--5-------- 
A----------------------------------------------- 
E----------------------------------------------- 


G--7--9--9--7--9--9--7--9--9-------------------- 
D-----------------------------9--8--7--5-------- 
A------------------------------------------7--5- 
E----------------------------------------------- 


G--7--9--9--7--9--9--7--9--9-------------------- 
D-----------------------------9--8--7--5-------- 
A----------------------------------------------- 
E----------------------------------------------- 


G--7--9--9--7--9--9--7--9--9-------------------- 
D-----------------------------9--8--7--5-------- 
A------------------------------------------7--6- 
E----------------------------------------------- 


G----------------10--12--------9--10-- 
D------------------------------------- 
A------------------------------------- 
E--3----------3----------0--1--------- 


G-----10--12-------10-9---------10--12-------9--10- 
D-----------------------8-------------------------- 
A-------------------------------------------------- 
E--3----------0--1----------3-----------0--1------- 


G-----10--12--------------- 
D------------------3-2----- 
A----------------1-----1--- 
E--3---------1-3---------1- 


G-----10--12--------9--10-----10--12----- 
D---------------------------------------- 
A-------------------------------------x-- 
E--3----------0--1---------3------------- 


G----------------------------- 
D----------------------------- 
A----------------------------- 
E-6-7-6-7-6-7-6-7-5-6-5-6-5-6- 

G--------10--12--------9--10-----10--12-------------- 
D-----------------------------------------------3--5- 
A---------------------------------------------1------ 
E-----3----------0--1---------3----------1-3--------- 


G-----5--8---------7--7----------5--------------------- 
D--6--------5--5---------3---6--------------5--6--5--8- 
A-----------------------------------3-3--3------------- 
E------------------------------------------------------ 


G--------7--7----------5---------------- 
D--5--5--------3---6------------5--9---- 
A-------------------------3--3---------- 
E-------------------------------------3- 


G--------10--12--------9--10-----10--12-------10-9--- 
D--------------------------------------------------8- 
A---------------------------------------------------- 
E-----3----------0--1---------3----------0--1-------- 
	  

Search Paypal
auto scroll beats size up size down change color hide chords drawings
tab show chords e-chords YouTube Clip e-chords hide all tabs e-chords go to top tab