Realm of Torment

Slavenation

Realm of Torment

tabs

by  PAULLET3

save to print version add songbook text version e-mail correct tuner
chordsukulelecavacokeyboardtabbassdrumsharmonicaflute Guitar Pro
close

there isn't a video lesson for this song

chords

Slavenation

	  		
Intro 1st Riff 

C#|---------------------------------------------------------------------------| 
G#|---------------------------------------------------------------------------| x6 
E |---------------------------------------------------------------------------| 
B |---7-8-7-----11-12-11------7-8-7-------------------------------------------| 
F#|---------------------------------------------------------------------------| 
B |---------------------------------------------------------------------------| 


Intro 2nd Riff 

C#|---------------------------------------------------------------------------| 
G#|---------------------------------------------------------------------------| 
E |---------------------------------------------------------------------------| 
B |---0-7-8-----0-11-12-------0-7-8-----0-11-12-----0-0-11--------------------| 
F#|---------------------------------------------------------------------------| 
B |---------------------------------------------------------------------------| 
                                                                                x2 
C#|---------------------------------------------------------------------------| 
G#|---------------------------------------------------------------------------| 
E |---------------------------------------------------------------------------| 
B |---0-7-8-----0-11-12-------0-7-8-----0-11-12-----0-0-6---------------------| 
F#|---------------------------------------------------------------------------| 
B |---------------------------------------------------------------------------| 
  

Intro 3rd Riff 

C#|---------------------------------------------------------------------------| 
G#|---------------------------------------------------------------------------| 
E |---------------------------------------------------------------------------| 
B |---0-7-8-7---0-11-12-11-----0-7-8-7----0-0-11------------------------------| 
F#|---------------------------------------------------------------------------| 
B |---------------------------------------------------------------------------| 

C#|---------------------------------------------------------------------------| 
G#|---------------------------------------------------------------------------| 
E |---------------------------------------------------------------------------| 
B |---0-7-8-7---0-11-12-11-----0-7-8-7-----0-0-6------------------------------| 
F#|---------------------------------------------------------------------------| 
B |---------------------------------------------------------------------------| 

C#|---------------------------------------------------------------------------| 
G#|---------------------------------------------------------------------------| 
E |---------------------------------------------------------------------------| 
B |---0-7-8-7---0-11-12-11-----0-7-8-7----0-0-11------------------------------| 
F#|---------------------------------------------------------------------------| 
B |---------------------------------------------------------------------------| 
C#|---------------------------------------------------------------------------| 
G#|---------------------------------------------------------------------------| 
E |---------------------------------------------------------------------------| 
B |---0-7-8-7---0-11-12-11-----0-7-8-7-----0-00-6-----------------------------| 
F#|---------------------------------------------------------------------------| 
B |---------------------------------------------------------------------------| 


Breakdown Build Up 

C#|---------------------------------------------------------------------------| 
G#|---------------------------------------------------------------------------| 
E |---------------------------------------------------------------------------| 
B |---------------------------------------------------------------------------| 
F#|--0-0-0-0---0-0-0-0-0-0-0--------------------------------------------------| 
B |--0-0-0-0---0-0-0-0-0-0-0--------------------------------------------------| 
     PMPMPMPM  PMPMPMPMPMPMPM 

C#|---------------------------------------------------------------------------| 
G#|---------------------------------------------------------------------------| 
E |---------------------------------------------------------------------------| 
B |---------------------------------------------------------------------------| 
F#|--0-0-0-0---0-0-0-0-0-0-0--------------------------------------------------| 
B |--0-0-0-0---0-0-0-0-0-0-0--------------------------------------------------| 
     PMPMPMPM  PMPMPMPMPMPMPM 

C#|---------------------------------------------------------------------------| 
G#|-----------------------------8---------------------------------------------| 
E |-----------------------------5---------------------------------------------| 
B |---------------------------------------------------------------------------| 
F#|--0-0-0-0---0-0-0-0-0-0-0--------------------------------------------------| 
B |--0-0-0-0---0-0-0-0-0-0-0--------------------------------------------------| 
     PMPMPMPM  PMPMPMPMPMPMPM 

C#|---------------------------------------------------------------------------| 
G#|---------------------------------------------------------------------------| 
E |---------------------------------------------------------------------------| 
B |---------------------------------------------------------------------------| 
F#|--0-0-0-0---0-0-0-0-0-0-0--------------------------------------------------| 
B |--0-0-0-0---0-0-0-0-0-0-0--------------------------------------------------| 
     PMPMPMPM  PMPMPMPMPMPMPM 


Breakdown 1 

C#|---------------------------------------------------------------------------| 
G#|---------------------------------------------------------------------------| 
E |---------------------------------------------------------------------------| 
B |---------------------------------------------------------------------------| 
F#|--0-0-0-0---0-0-1-2-1-2----0-0-0-0---0-0-1-0-1-1-1-------------------------| 
B |--0-0-0-0---0-0-1-2-1-2----0-0-0-0---0-0-1-0-1-1-1-------------------------| 
     PMPMPMPM  PMPMPMPMPMPMPM PMPMPMPM  PMPMPMPMPMPMPM 
                                                                                     x2                 
C#|---------------------------------------------------------------------------| 
G#|---------------------------------------------------------------------------| 
E |---------------------------------------------------------------------------| 
B |---------------------------------------------------------------------------| 
F#|--0-0-0-0---0-0-1-2-1-2----0-0-0-0---0-0-0-1-3-1-3-------------------------| 
B |--0-0-0-0---0-0-1-2-1-2----0-0-0-0---0-0-0-1-3-1-3-------------------------| 
     PMPMPMPM  PMPMPMPMPMPMPM PMPMPMPM  PMPMPMPMPMPMPM 

  
Build Up 2 

C#|---------------------------------------------------------------------------| 
G#|---------------------------------------------------------------------------| 
E |---------------------------------------------------------------------------| 
B |---------------------------------------------------------------------------| 
F#|--0-0-0-0---0-0-0-0-0-0-0--------------------------------------------------| 
B |--0-0-0-0---0-0-0-0-0-0-0--------------------------------------------------| 
     PMPMPMPM  PMPMPMPMPMPMPM 

C#|---------------------------------------------------------------------------| 
G#|-----------------------------8---------------------------------------------| 
E |-----------------------------5---------------------------------------------| 
B |---------------------------------------------------------------------------| 
F#|--0-0-0-0---0-0-0-0-0-0-0--------------------------------------------------| 
B |--0-0-0-0---0-0-0-0-0-0-0--------------------------------------------------| 
     PMPMPMPM  PMPMPMPMPMPMPM 

C#|---------------------------------------------------------------------------| 
G#|---------------------------------------------------------------------------| 
E |---------------------------------------------------------------------------| 
B |---------------------------------------------------------------------------| 
F#|--0-0-0-0---0-0-0-0-0-0-0--------------------------------------------------| 
B |--0-0-0-0---0-0-0-0-0-0-0--------------------------------------------------| 
     PMPMPMPM  PMPMPMPMPMPMPM 


Final Breakdown 

C#|---------------------------------------------------------------------------| 
G#|---------------------------------------------------------------------------| 
E |---------------------------------------------------------------------------| 
B |---------------------------------------------------------------------------| 
F#|--0-0-0-0---0-0-1-2-1-2----0-0-0-0---0-0-1-0-1-1-1-------------------------| 
B |--0-0-0-0---0-0-1-2-1-2----0-0-0-0---0-0-1-0-1-1-1-------------------------| 
     PMPMPMPM  PMPMPMPMPMPMPM PMPMPMPM  PMPMPMPMPMPMPM 
                                                                                  x2 
C#|---------------------------------------------------------------------------| 
G#|---------------------------------------------------------------------------| 
E |---------------------------------------------------------------------------| 
B |---------------------------------------------------------------------------| 
F#|--0-0-0-0---0-0-1-2-1-2----0-0-0-0---0-0-0-1-3-1-3-------------------------| 
B |--0-0-0-0---0-0-1-2-1-2----0-0-0-0---0-0-0-1-3-1-3-------------------------| 
     PMPMPMPM  PMPMPMPMPMPMPM PMPMPMPM  PMPMPMPMPMPMPM 



************************************ 

| x  Dead note 
| PM Palm Mute 

************************************ 
		  

See also:

tabs Ira! - Envelheço Na Cidade(Solo - Acustivo Mtv) tabs Deep Purple - No No No tabs Deep Purple - Black Night tabs Deep Purple - Smoke on the water(ver. 2) tabs Deep Purple - Since Youve Been Gone tabs Albert Hammond Jr - In My Room
e-chords

Other versions:

tabs Realm of Torment - Slavenation
auto scroll beats size up size down change color hide chords drawings
tab show chords e-chords YouTube Clip e-chords hide all tabs e-chords go to top tab

share