Ray Charles

home > Ray Charles

Dont Let The Sun Catch You Crying Tab

Ray Charles

Difficulty: nolevelnolevel

by gustsilva

tuner correct add songbook print version text version save to e-mail
chordsukulelecavacokeyboardtabbassdrumsharmonicsflute Guitar Pro
chords

Dont Let The Sun Catch You Crying

  		


Verse 

   Bmaj7                          Amaj7                          Bmaj7 
E|---------------------2--------|------------------------------|-------------2----------------| 
B|-4-----------------------4----|-2-------------------0---2----|-4----------------------------| 
G|-----3-------3----------------|-----1-------1----------------|-----3---------------3--------| 
D|---------4---------------4----|---------2---------------2----|---------4---------------4----| 
A|------------------------------|-0---------------0------------|------------------------------| 
E|-2---------------2------------|------------------------------|-2---------------2------------| 
   Don't               let the    sun                 catch you  cryin' 
   Don't               let the    sun                 catch you  lyin' 


   A6                             Bmaj7                          Amaj7 
E|-4-------------------2---0----|------------------------------|------------------------------| 
B|------------------------------|-4-----------------------4----|-2-------------------0---2----| 
G|-----2-------2----------------|-----3-------3-------3--------|-----1-------1----------------| 
D|---------2---------------2----|---------4---------------4----|---------2---------------2----| 
A|-0---------------0------------|------------------------------|-0---------------0------------| 
E|------------------------------|-2---------------2------------|------------------------------| 
                                                      Cryin'     at     my               front 
                                                      Lyin'      at     my               front 

   B                              Dbm7                           E6 
E|------------------------------|------------------------------|-0-----------0----------------| 
B|-4----------------------------|-5-----------7-------5--------|-2-----------2----------------| 
G|-----4-------4-------4--------|-----4------------------------|-----1---------------1--------| 
D|---------4---------------4----|---------6---------------6----|---------2---------------2----| 
A|------------------------------|------------------------------|-2---------------2------------| 
E|-2---------------2------------|-4---------------4------------|------------------------------| 
   door                                                          You've      done    daddy          
   door                                                          Daddy's     done    turned  


   E                              Dbm                            Dbm7 
E|-0-----------0----------------|-4-----------4----------------|-4-----------4----------------| 
B|-0-----------0----------------|-5-----------5----------------|-5-----------5----------------| 
G|-----1---------------1--------|-----6---------------6--------|-----4---------------4--------| 
D|---------2---------------2----|---------6---------------6----|---------6---------------6----| 
A|------------------------------|-4---------------4------------|------------------------------| 
E|-0---------------0------------|------------------------------|-4---------------4------------| 
   dirty,                  He     sure                    don't  want you            no     
   salty,                  And    baby,                   you've made him            so  

   B6                             B 
E|-4-----------4----------------|-2-----------2----------------| 
B|-4-----------4----------------|-4-----------4----------------| 
G|-----4---------------4--------|-----4---------------4--------| 
D|---------4---------------4----|---------4---------------4----| 
A|-2---------------2------------|-2---------------2------------| 
E|------------------------------|------------------------------| 
   more.     
   sore. 


Chorus 

   Bbm7                           Ebm7                           Bm7 
E|-6-----------6----------------|-6-----------6----------------|-6-----------6----------------| 
B|-6-----------6----------------|-7-----------7----------------|-6-----------6----------------| 
G|-----7---------------7--------|-----6---------------6--------|-----7---------------7--------| 
D|---------6---------------6----|---------8---------------8----|---------6---------------6----| 
A|------------------------------|------------------------------|------------------------------| 
E|-6---------------6------------|-6---------------6------------|-6---------------6------------| 
                       You can    cry,                cry,       cry,                    Yes 

   Ebm7                           Abm7 
E|-9-----------6----------------|-4-----------4----------------|-4-----------4----------------| 
B|-7-----------7----------------|-4-----------4----------------|-4-----------4----------------| 
G|-----6---------------6--------|-----5---------------5--------|-----5---------------5--------| 
D|---------8---------------8----|---------4---------------4----|---------4---------------4----| 
A|------------------------------|------------------------------|------------------------------| 
E|-6---------------6------------|-4---------------4------------|-4---------------4------------| 
   baby,               you can    wail,                                              Beat your 

   Db9                                                           Dbm7 
E|-4-----------4----------------|-4-----------4----------------|-4-----------4----------------| 
B|-4-----------4----------------|-4-----------4----------------|-5-----------5----------------| 
G|-----4---------------4--------|-----4---------------4--------|-----4---------------4--------| 
D|---------6---------------6----|---------6---------------6----|---------6---------------6----| 
A|------------------------------|------------------------------|------------------------------| 
E|-4---------------4------------|-4---------------4------------|-4---------------4------------| 
   head    on  the pavement                           Till the   man comes   and throws you in 

   Gbm7 
E|-2-----------2----------------|-2-----------2----------------| 
B|-2-----------2----------------|-2-----------2----------------| 
G|-----3---------------3--------|-----3---------------3--------| 
D|---------2---------------2----|---------2---------------2----| 
A|------------------------------|------------------------------| 
E|-2---------------2------------|-2---------------2------------| 
   jail. 
	  

Full key step upFull key step up
Half key step upHalf key step up
Half key step downHalf key step down
Full key step downFull key step down
Search Paypal
auto scroll beats size up size down change color hide chords drawings
tab show chords e-chords YouTube Clip e-chords hide all tabs e-chords go to top tab