Raul Seixas

Cowboy fora da lei

Raul Seixas

tabs Expert expert

by  MNETO

save to print version add songbook text version e-mail correct tuner
chordsukulelecavacokeyboardtabbassdrumsharmonicaflute Guitar Pro
close

there isn't a video lesson for this song

chords

Cowboy fora da lei

Year: 2004 - Album: Essential

	  		é so a tablatura do refrao 
 
RIFF:  
  G/B        C 
e|-----------0---------- 
B|-----------1----------- 
G|-----------0------------ 
D|-----------2------------ 
A|------2--3/3----------- 
E|-0--3------0--------- 
 
RIFF na Melodia do Refrão: 
 
e|----------7--8-8--7--5---------------7--/10---8-7----------------- 
B|---5-8-------------------7---7-5--------------------8--------------- 
G|-----------------------------------7------------------------------------ 
D|----------------------------------------------------------------------- 
A|----------------------------------------------------------------------- 
E|----------------------------------------------------------------------- 
 
	"eu não sou besta..." 
 
e|------------------8~--------------------7~--------------------------- 
B|-------8-7--5-----------8-7--7-5------------------------------------ 
G|-------------------------------------7---------------------------------- 
D|----------------------------------------------------------------------- 
A|----------------------------------------------------------------------- 
E|----------------------------------------------------------------------- 
 
	"eu sou cowboy... cowboy fora da lei..." 
 
e|--------8-7------------------------------------------------------------ 
B|-------------8-7-7---5--7--8~~------------------------------------- 
G|----------------------------------------------------------------------- 
D|----------------------------------------------------------------------- 
A|----------------------------------------------------------------------- 
E|----------------------------------------------------------------------- 
	"entrar pra história é com vocês!" 
 
 

		  

Full key step upFull key step up
Half key step upHalf key step up
Half key step downHalf key step down
Full key step downFull key step down
auto scroll beats size up size down change color hide chords drawings
tab show chords e-chords YouTube Clip e-chords hide all tabs e-chords go to top tab

share