Raphael Patkanian

Armenian lullaby Oror

Raphael Patkanian

tabs Expert expert

by  HAYASER

save to print version add songbook text version e-mail correct tuner
chordsukulelecavacokeyboardtabbassdrumsharmonicaflute Guitar Pro
close

there isn't a video lesson for this song

chords

Armenian lullaby Oror

	  		 
Tuning:EADGBe 
 
 
 
e|----3---3-3---------------------------------------------| 
B|--------------6---4--3-------4---6---3--4--1------------| 
G|--------------------------------------------------------| 
D|--------------------------------------------------------| 
A|--------------------------------------------------------| 
E|--------------------------------------------------------| 
     koun yeghir  palas      atchered khoup ara      
 
e|--------------------------------------------------------| 
B|--4---4--4---6---3--2----1------------------------------| 
G|-------------------------------3---5--2---3--0----7-----| 
D|--------------------------------------------------------| 
A|--------------------------------------------------------| 
E|--------------------------------------------------------| 
    nakhshoun     atcherout       koun tokh ka  vera 
e|--------------------------------------------------------| 
B|--4---4--4---6---3--2----1------------------------------| 
G|-------------------------------3---5--2---3--0----------| 
D|--------------------------------------------------------| 
A|--------------------------------------------------------| 
E|--------------------------------------------------------| 
    nakhshoun    atcheret       koun tokh ka vera 
 
e|--------------------------------------------------------| 
B|---3---3---8---8---6----4---3--3--4--6-4-3--------------| 
G|--------------------------------------------------------| 
D|--------------------------------------------------------| 
A|--------------------------------------------------------| 
E|--------------------------------------------------------| 
     oror    imn     palas    oror  ou  nani 
e|--------------------------------------------------------| 
B|--4---4--4---6---3--2----1------------------------------| 
G|-------------------------------3---5--2---3--0----------| 
D|--------------------------------------------------------| 
A|--------------------------------------------------------| 
E|--------------------------------------------------------| 
   im  anoushigis                kouni   ge  dani 
 
e|----3---3-3---------------------------------------------| 
B|--------------6---4--3-------4---6---3--4--1------------| 
G|--------------------------------------------------------| 
D|--------------------------------------------------------| 
A|--------------------------------------------------------| 
E|--------------------------------------------------------| 
     toun al   koun yeghir    indsi al koun dour 
 
e|--------------------------------------------------------| 
B|--4---4--4---6---3--2----1------------------------------| 
G|-------------------------------3---5--2---3--0----------| 
D|--------------------------------------------------------| 
A|--------------------------------------------------------| 
E|--------------------------------------------------------| 
   sourp  adsdouvadsamair       anoushis koun per 
 
 
 
 
 
| /  slide up 
| \  slide down 
| h  hammer-on 
| p  pull-off 
| ~  vibrato 
| +  harmonic 
| x  Mute note 
======================================================== 

		  

See also:

tabs Punch Brothers - Flippenthe Flip tabs Punch Brothers - Another New World tabs Punch Brothers - You Are tabs Johann Pachelbel - Canon in D tabs Raphael Patkanian - Armenian lullaby Oror tabs Barsegh Kanachyan - Armenian National Anthem
e-chords

Other versions:

tabs Raphael Patkanian - Armenian lullaby Oror
auto scroll beats size up size down change color hide chords drawings
tab show chords e-chords YouTube Clip e-chords hide all tabs e-chords go to top tab

share