Ramones

home > Ramones

Time Has Come Today Tab

Ramones

Difficulty: EasyEasy

tuner correct add songbook print version text version save to e-mail
chordsukulelecavacokeyboardtabbassdrumsharmonicsflute Guitar Pro
chords

Time Has Come Today

  		Intro : 
 
e|----------------------------------------------------------------| 
B|-------7h9h7-------7h9h7-5-------7h9h7-5-7-------7h9h7----------| 
G|---7-----------5-----------------------------7------------------| 
D|---7-----------5-------------5---------------7------------------| 
A|---5-----------3-------------5---------------5------------------| 
E|-----------------------------3----------------------------------| 
 
e|----------------------------------------------------------------| 
B|-------7h9h7-------7h9h7-5-------7h9h7-5-7-----------7h9h7------| 
G|---7-----------5-----------------------------7-7-7--------------| 
D|---7-----------5-------------5---------------7-7-7--------------| 
A|---5-----------3-------------5---------------5-5-5--------------| 
E|-----------------------------3----------------------------------| 
 
Riff 1 : 
 
e|-----------------------------------| 
B|-----------------------------------| 
G|---7-7-7---5-5-5-----------7-7-7---| 
D|---7-7-7---5-5-5---5-5-5---7-7-7---| 
A|---5-5-5---3-3-3---5-5-5---5-5-5---| 
E|-------------------3-3-3-----------| 
 
Riff 2 : 
 
e|-------------------------------------------------------------------| 
B|-------------------------------------------------------------------| 
G|---7-7-7-7-7-7-7---5-5-5-5-5-5-5-------------------7-7-7-7-7-7-7---| 
D|---7-7-7-7-7-7-7---5-5-5-5-5-5-5---5-5-5-5-5-5-5---7-7-7-7-7-7-7---| 
A|---5-5-5-5-5-5-5---3-3-3-3-3-3-3---5-5-5-5-5-5-5---5-5-5-5-5-5-5---| 
E|-----------------------------------3-3-3-3-3-3-3-------------------| 
 
Riff 3 : 
 
e|-------| 
B|-------| 
G|---7---| 
D|---7---| 
A|---5---| 
E|-------| 
 
 
Riff 1 (6x) 
 
Time has come today 
Young hearts can go their way 
Can't put it off another day 
I don't care what others say 
They say we don't listen anyway 
Time has come today, hey 
 
 
Riff 2 (1x) 
 
 
Riff 1 (8x) 
 
The room has changed today 
I have no place to stay 
I'm thinking about the subway 
Mu love has blown away 
My tears have come and gone 
Oh'Lord I got to run 
I got no home 
No, I have no home 
 
e|--------------------------------------------------------------------| 
B|-------7h9h7-------7h9h7-5-------7h9h7-5-7-----------7h9h7----------| 
G|---7-----------7-----------------------------7-7-7------------------| 
D|---7-----------7-------------5---------------7-7-7------------------| 
A|---5-----------5-------------5---------------5-5-5------------------| 
E|-----------------------------3--------------------------------------| 
 
Riff 1 (8x) 
 
Now the time has come 
Nowhere (place) to run 
Might get burned up by the sun 
But I'll have my fun 
I've been loved, pushed (put) aside 
I've been crushed by tumbling tide 
And my soul has been psychedelicized 
 
Riff 1 (4x) 
 
Now the time has come 
There are things to realize 
Time has come today 
Time has come today 
 
Riff 3 (45x) 
 
Riff 1 (8x) 
 
Now the time has come 
Nowhere (place) to run 
Might get burned up by the sun 
But I'll have my fun 
I've been loved, pushed (put) aside 
I've been crushed by tumbling tide 
And my soul has been psychedelicized 
 
Riff 1 (6x) 
 
Now the time has come 
There are things to realize 
Time has come today 
Time has come today 
Time has come today 
Time has come today 

	  

Search Paypal
auto scroll beats size up size down change color hide chords drawings
tab show chords e-chords YouTube Clip e-chords hide all tabs e-chords go to top tab