Ramones

home > Ramones

Pet sametery Tab

Ramones

Difficulty: EasyEasy

by 12321%BD

tuner correct add songbook print version text version save to e-mail
chordsukulelecavacokeyboardtabbassdrumsharmonicsflute Guitar Pro
chords

Pet sametery

  		   
 
intro/Verse 
e--------------------------------- 
B--------------------------------- 
G-------7-----9-----10------------ 
D-----7-----9----10--------------- 
A---5-----7----8------------------ 
E--------------------------------- 
Brige 
--------------------------------- 
--------------------------------- 
--------------------------------- 
-5-5-5-5-7-7-7-7-5-5-5-5-7-7-7-7- 
-3-3-3-3-5-5-5-5-3-3-3-3-5-5-5-5- 
--------------------------------- 
 
--------------------------------- 
--------------------------------- 
--------------------------------- 
-3-3-3-3-5-5-5-5----------------- 
-1-1-1-1-3-3-3-3----------------- 
--------------------------------- 
cords 
--------------------------------- 
--------------------------------- 
--------------------------------- 
-7-7-7-7-10-10-10-10-5-5-5-5----- 
-5-5-5-5-8--8--8--8--3-3-3-3----- 
--------------------------------- 
 
--------------------------------- 
--------------------------------- 
--------------------------------- 
-15-15-15-15-7-7-7-7-5-5-5-5----- 
-13-13-13-13-5-5-5-5-3-3-3-3----- 
--------------------------------- 
 
--------------------------------- 
--------------------------------- 
--------------------------------- 
-3-3-3-3-5-5-5-5----------------- 
-1-1-1-1-3-3-3-3----------------- 
--------------------------------- 

	  

Search Paypal
auto scroll beats size up size down change color hide chords drawings
tab show chords e-chords YouTube Clip e-chords hide all tabs e-chords go to top tab