Ramones

home > Ramones

Out Of Here Tab

Ramones

Difficulty: nolevelnolevel

by aleffederico

tuner correct add songbook print version text version save to e-mail
chordsukulelecavacokeyboardtabbassdrumsharmonicsflute Guitar Pro
chords

Out Of Here

  		
Intro 

E|-----------------------------------------------------------------------| 
B|-----------------------------------------------------------------------| 
G|-----------------------------------------------------------------------| 
D|-----------------------------------------------------------------------| 
A|--0--2--3--2--5--2-----2--3--2--5--2-----2--3--2--5--2-----------------| 
E|--------------------3-----------------1-----------------0--3--4--3--6--| 

pause for a few seconds 


Verses  

(play once, then vocals come in) 
E|----------------------------------------------------------------------------------| 
B|----------------------------------------------------------------------------------| 
G|----------------------------------------------------------------------------------| 
D|-----------------------------3-----------5-----------------------3-----------5----| 
A|--------------------------3-----3-----5-----5-----------------3-----3-----5-----5-| 
E|--0--2--3--5--8--7--3--1-----------3-----------5--8--7--3--1-----------3----------| 

   Hanging out and shooting out all of the lights  I toss and toss, it's after dark 


Chorus  

(play four times) 
E|------------------------| 
B|------------------------| 
G|------------------------| 
D|--5-5-5-3-5-3-3-3-5-5-5-| 
A|--5-5-5-3-5-3-3-3-5-5-5-| 
E|--3-3-3-1-3-1-1-1-3-3-3-| 

We're getting out of here 
As fast as we can 
	  

Search Paypal
auto scroll beats size up size down change color hide chords drawings
tab show chords e-chords YouTube Clip e-chords hide all tabs e-chords go to top tab