Ramones

home > Ramones

My brain is hanging upside down(Bonzo goes to bitburg) Tab

Ramones

Difficulty: ExpertExpert

by Rosas+Morales

tuner correct add songbook print version text version save to e-mail
chordsukulelecavacokeyboardtabbassdrumsharmonicsflute Guitar Pro
chords

My brain is hanging upside down(Bonzo goes to bitburg)

  		 G-----------------5--55555----------- 
 D-5------3--33333-5--55555--555555--5- 
 A-5-x18--3--33333-3--33333--555555--5- 
 E-3------1--11111-----------333333--3- 
 
Verse 1  
 D-3-3-3-3-3-3-3-3-3-3-3-3-3-3-3-3-- 
 A-3-3-3-3-3-3-3-3-3-3-3-3-3-3-3-3-- 
 E-1-1-1-1-1-1-1-1-1-1-1-1-1-1-1-1-- 
   You've got to pick up the pieces 
 
 G-5-5-5-5-5-5-5-5-5-5-5-5-5-5-5-5-5- 
 D-5-5-5-5-5-5-5-5-5-5-5-5-5-5-5-5-5- 
 A-3-3-3-3-3-3-3-3-3-3-3-3-3-3-3-3-3- 
   C'mon, sort your trash You better  
 
 D-5-5-5-5-5-5-5-5-5-5-5-5-5-5-5-5-- 
 A-5-5-5-5-5-5-5-5-5-5-5-5-5-5-5-5-- 
 E-3-3-3-3-3-3-3-3-3-3-3-3-3-3-3-3-- 
   pull yourself back together 
   Maybe you've got too much cash Better 
  
  
 D-7-7-7-7-7-7-7-7-7-7-7-7-7-7-7-7-5-5-5-5-5-5-5-3-3-3-- 
 A-7-7-7-7-7-7-7-7-7-7-7-7-7-7-7-7-5-5-5-5-5-5-5-3-3-3-- 
 E-5-5-5-5-5-5-5-5-5-5-5-5-5-5-5-5-3-3-3-3-3-3-3-1-1-1-- 
  Bonzo goes to bitburg then goes out for a cup of tea 
  As I watched it on TV somehow it really bothered me 
  Drank in all the bars in town for an extended foreign policy Pick up the pieces 
 
 G-5------------------------------ 
 D-5-x6-5-5-5-5-5-5-5-5-5-5-3-3-3-3-3-3-- 
 A-3----5-5-5-5-5-5-5-5-5-5-3-3-3-3-3-3-- 
 E------3-3-3-3-3-3-3-3-3-3-1-1-1-1-1-1-- 
        My brain is hanging upside down 
        I need something to slow me down 
   
Shouldn't wish you happiness,  
wish her the very best 
Fifty thousand dollar dress Shaking hands with your highness 
See through you like cellophane 
You watch the world complain,  
but you do it anyway Who am I, am I to say 
 
Bonzo goes to bitburg then goes out for a cup of tea 
As I watched it on TV somehow it really bothered me 
Drank in all the bars in town for an extended foreign policy,Pick up the pieces 
 
My brain is hanging upside down 
I need something to slow me down 
 
solo: 
 G-7-----1414------12----- 
 D-7-----1414------12----- x4 
 A-5-----1212------10----- 
 
 G-7-7-7-7-7-7-7-7-7-7-7-7-7-7-7-7-7-7-7-7-- 
 D-7-7-7-7-7-7-7-7-7-7-7-7-7-7-7-7-7-7-7-7-- 
 A-5-5-5-5-5-5-5-5-5-5-5-5-5-5-5-5-5-5-5-5-- 
   If there's one thing that makes me sick 
 
 D-7-7-7-7-7-7-7-7-7-7-7-7-7-7-7-7-7-7-7--5-5-5-5-5-5-- 
 A-7-7-7-7-7-7-7-7-7-7-7-7-7-7-7-7-7-7-7--5-5-5-5-5-5-- 
 E-5-5-5-5-5-5-5-5-5-5-5-5-5-5-5-5-5-5-5--3-3-3-3-3-3-- 
   It's when someone tries to hide behind politics 
   I wish that time could go by fast 
   Somehow they manage to make it last 
   My brain is hanging upside down 
   I need something to slow me down 
 

	  

Search Paypal
auto scroll beats size up size down change color hide chords drawings
tab show chords e-chords YouTube Clip e-chords hide all tabs e-chords go to top tab