Ramones

home > Ramones

Beat On The Brat (live) Tab

Ramones

Difficulty: IntermediateIntermediate

by Maizena

tuner correct add songbook print version text version save to e-mail
chordsukulelecavacokeyboardtabbassdrumsharmonicsflute Guitar Pro
chords

Beat On The Brat (live)

  		                               Beat On The Brat                                  
 
 
Johnny Ramone 
 
 
 
                                                                                 
E||-------------------------|-------------------------|------------------------| 
B||-------------------------|-------------------------|------------------------| 
G||--------------------9----|--------------------9----|--------9----------9----| 
D||--9--9--9--9--9--9--9----|--9--9--9--9--9--9--9----|--9--9--9----9--9--9----| 
A||--9--9--9--9--9--9--7----|--9--9--9--9--9--9--7----|--9--9--7----9--9--7----| 
E||--7--7--7--7--7--7-------|--7--7--7--7--7--7-------|--7--7-------7--7-------| 
 
                                                       
E||--------------------------|--------------------------| 
B||--------------------------|--------------------------| 
G||--------------------------|--------------------------| 
D||--9--9--9--9--9--9--9--9--|--9--9--9--9--9--9--9--9--| 
A||--9--9--9--9--9--9--9--9--|--9--9--9--9--9--9--9--9--| 
E||--7--7--7--7--7--7--7--7--|--7--7--7--7--7--7--7--7--| 
 
                                                       
E||--------------------------|--------------------------| 
B||--------------------------|--------------------------| 
G||--------------------------|--------------------------| 
D||--9--9--9--9--9--9--9--9--|--9--9--9--9--9--9--9--9--| 
A||--9--9--9--9--9--9--9--9--|--9--9--9--9--9--9--9--9--| 
E||--7--7--7--7--7--7--7--7--|--7--7--7--7--7--7--7--7--| 
 
                                                                                
E||--------------------------|--------------------------|------------------------| 
B||--------------------------|--------------------------|------------------------| 
G||--------------------------|--------------------------|--9----9--9----9--9--9--| 
D||--9--9--9--9--9--9--9--9--|--9--9--9--9--9--9--9--9--|--9----9--9----9--9--9--| 
A||--9--9--9--9--9--9--9--9--|--9--9--9--9--9--9--9--9--|--7----7--7----7--7--7--| 
E||--7--7--7--7--7--7--7--7--|--7--7--7--7--7--7--7--7--|------------------------| 
 
                                                                                
E||------------------------|--------------------------|--------------------------| 
B||------------------------|--------------------------|--------------------------| 
G||------------------------|--------------------------|--------------------------| 
D||--4----4--4----4--4--4--|--9--9--9--9--9--9--9--9--|--9--9--9--9--9--9--9--9--| 
A||--4----4--4----4--4--4--|--9--9--9--9--9--9--9--9--|--9--9--9--9--9--9--9--9--| 
E||--2----2--2----2--2--2--|--7--7--7--7--7--7--7--7--|--7--7--7--7--7--7--7--7--| 
 
                                                       
E||--------------------------|--------------------------| 
B||--------------------------|--------------------------| 
G||--------------------------|--------------------------| 
D||--9--9--9--9--9--9--9--9--|--9--9--9--9--9--9--9--9--| 
A||--9--9--9--9--9--9--9--9--|--9--9--9--9--9--9--9--9--| 
E||--7--7--7--7--7--7--7--7--|--7--7--7--7--7--7--7--7--|                                                                            
 
 
E||--------------------------|--------------------------|------------------------| 
B||--------------------------|--------------------------|------------------------| 
G||--------------------------|--------------------------|--9----9--9----9--9--9--| 
D||--9--9--9--9--9--9--9--9--|--9--9--9--9--9--9--9--9--|--9----9--9----9--9--9--| 
A||--9--9--9--9--9--9--9--9--|--9--9--9--9--9--9--9--9--|--7----7--7----7--7--7--| 
E||--7--7--7--7--7--7--7--7--|--7--7--7--7--7--7--7--7--|------------------------| 
 
 
                                                                                
 
 
E||------------------------|--------------------------|--------------------------| 
B||------------------------|--------------------------|--------------------------| 
G||------------------------|--------------------------|--------------------------| 
D||--4----4--4----4--4--4--|--9--9--9--9--9--9--9--9--|--9--9--9--9--9--9--9--9--| 
A||--4----4--4----4--4--4--|--9--9--9--9--9--9--9--9--|--9--9--9--9--9--9--9--9--| 
E||--2----2--2----2--2--2--|--7--7--7--7--7--7--7--7--|--7--7--7--7--7--7--7--7--| 
 
                                                                              
E||------------------------|------------------------|--------------------------| 
B||------------------------|------------------------|--------------------------| 
G||--9----9--9----9--9--9--|------------------------|--------------------------| 
D||--9----9--9----9--9--9--|--4----4--4----4--4--4--|--9--9--9--9--9--9--9--9--| 
A||--7----7--7----7--7--7--|--4----4--4----4--4--4--|--9--9--9--9--9--9--9--9--| 
E||------------------------|--2----2--2----2--2--2--|--7--7--7--7--7--7--7--7--| 
 
                                                                            
E||--------------------------|------------------------|------------------------| 
B||--------------------------|------------------------|------------------------| 
G||--------------------------|------------------------|------------------------| 
D||--9--9--9--9--9--9--9--9--|--7----7--7----7--7--7--|--4----4--4----4--4--4--| 
A||--9--9--9--9--9--9--9--9--|--7----7--7----7--7--7--|--4----4--4----4--4--4--| 
E||--7--7--7--7--7--7--7--7--|--5----5--5----5--5--5--|--2----2--2----2--2--2--| 
 
                                                                              
E||------------------------|------------------------|--------------------------| 
B||------------------------|------------------------|--------------------------| 
G||------------------------|------------------------|--------------------------| 
D||--7----7--7----7--7--7--|--4----4--4----4--4--4--|--9--9--9--9--9--9--9--9--| 
A||--7----7--7----7--7--7--|--4----4--4----4--4--4--|--9--9--9--9--9--9--9--9--| 
E||--5----5--5----5--5--5--|--2----2--2----2--2--2--|--7--7--7--7--7--7--7--7--| 
 
                                                  
E||--------------------------|--------------------------| 
B||--------------------------|--------------------------| 
G||--9--9--9--9--9--9--9--9--|--------------------------| 
D||--9--9--9--9--9--9--9--9--|--9--9--9--9--9--9--9--9--| 
A||--7--7--7--7--7--7--7--7--|--9--9--9--9--9--9--9--9--| 
E||--------------------------|--7--7--7--7--7--7--7--7--| 
 
                                                       
E||--------------------------|--------------------------| 
B||--------------------------|--------------------------| 
G||--9--9--9--9--9--9--9--9--|--------------------------| 
D||--9--9--9--9--9--9--9--9--|--9--9--9--9--9--9--9--9--| 
A||--7--7--7--7--7--7--7--7--|--9--9--9--9--9--9--9--9--| 
E||--------------------------|--7--7--7--7--7--7--7--7--|                                                                           
 
 
E||--------------------------|------------------------|------------------------| 
B||--------------------------|------------------------|------------------------| 
G||--------------------------|------------------------|------------------------| 
D||--9--9--9--9--9--9--9--9--|--7----7--7----7--7--7--|--4----4--4----4--4--4--| 
A||--9--9--9--9--9--9--9--9--|--7----7--7----7--7--7--|--4----4--4----4--4--4--| 
E||--7--7--7--7--7--7--7--7--|--5----5--5----5--5--5--|--2----2--2----2--2--2--| 
 
                                                       
E||--------------------------|--------------------------| 
B||--------------------------|--------------------------| 
G||--------------------------|--9--9--9--9--9--9--9--9--| 
G||--9--9--9--9--9--9--9--9--|--9--9--9--9--9--9--9--9--| 
A||--9--9--9--9--9--9--9--9--|--7--7--7--7--7--7--7--7--| 
E||--7--7--7--7--7--7--7--7--|--------------------------| 
 
 
                                                       
 
 
E||--------------------------|--------------------------| 
B||--------------------------|--------------------------| 
G||--------------------------|--9--9--9--9--9--9--9--9--| 
D||--9--9--9--9--9--9--9--9--|--9--9--9--9--9--9--9--9--| 
A||--9--9--9--9--9--9--9--9--|--7--7--7--7--7--7--7--7--| 
E||--7--7--7--7--7--7--7--7--|--------------------------| 
 
                                                       
E||--------------------------|--------------------------| 
B||--------------------------|--------------------------| 
G||--------------------------|--------------------------| 
D||--9--9--9--9--9--9--9--9--|--9--9--9--9--9--9--9--9--| 
A||--9--9--9--9--9--9--9--9--|--9--9--9--9--9--9--9--9--| 
E||--7--7--7--7--7--7--7--7--|--7--7--7--7--7--7--7--7--| 
 
                                                                                 
E||-------------------------|-------------------------||-------------------------| 
B||-------------------------|-------------------------||-------------------------| 
G||*------------------------|------------------------*||--------------------9----| 
D||*--7----7--7----7--7--7--|--4----4--4----4--4--4--*||--9--9--9--9--9--9--9----| 
A||---7----7--7----7--7--7--|--4----4--4----4--4--4---||--9--9--9--9--9--9--7----| 
E||---5----5--5----5--5--5--|--2----2--2----2--2--2---||--7--7--7--7--7--7-------| 
 
                                                        
E||-------------------------||--------------------------|| 
B||-------------------------||--------------------------|| 
G||--------------------9----||*--------9----------9----*|| 
D||--9--9--9--9--9--9--9----||*--9--9--9----9--9--9----*|| 
A||--9--9--9--9--9--9--7----||---9--9--7----9--9--7-----|| 
E||--7--7--7--7--7--7-------||---7--7-------7--7--------|| 
 
 
                                                       
E||--------------------------|--------------------------| 
B||--------------------------|--------------------------| 
G||--------------------------|--------------------------| 
D||--9--9--9--9--9--9--9--9--|--9--9--9--9--9--9--9--9--| 
A||--9--9--9--9--9--9--9--9--|--9--9--9--9--9--9--9--9--| 
E||--7--7--7--7--7--7--7--7--|--7--7--7--7--7--7--7--7--| 
 
 
                                                       
 
 
E||--------------------------|--------------------------| 
B||--------------------------|--------------------------| 
G||--------------------------|--------------------------| 
D||--9--9--9--9--9--9--9--9--|--9--9--9--9--9--9--9--9--| 
A||--9--9--9--9--9--9--9--9--|--9--9--9--9--9--9--9--9--| 
E||--7--7--7--7--7--7--7--7--|--7--7--7--7--7--7--7--7--| 
 
                                                                               
E||--------------------------|--------------------------|------------------------| 
B||--------------------------|--------------------------|------------------------| 
G||--------------------------|--------------------------|--9----9--9----9--9--9--| 
D||--9--9--9--9--9--9--9--9--|--9--9--9--9--9--9--9--9--|--9----9--9----9--9--9--| 
A||--9--9--9--9--9--9--9--9--|--9--9--9--9--9--9--9--9--|--7----7--7----7--7--7--| 
E||--7--7--7--7--7--7--7--7--|--7--7--7--7--7--7--7--7--|------------------------| 
 
                                                                                
E||------------------------|--------------------------|--------------------------| 
B||------------------------|--------------------------|--------------------------| 
G||------------------------|--------------------------|--------------------------| 
D||--4----4--4----4--4--4--|--9--9--9--9--9--9--9--9--|--9--9--9--9--9--9--9--9--| 
A||--4----4--4----4--4--4--|--9--9--9--9--9--9--9--9--|--9--9--9--9--9--9--9--9--| 
E||--2----2--2----2--2--2--|--7--7--7--7--7--7--7--7--|--7--7--7--7--7--7--7--7--| 
 
                                                       
E||--------------------------|--------------------------| 
B||--------------------------|--------------------------| 
G||--------------------------|--------------------------| 
D||--9--9--9--9--9--9--9--9--|--9--9--9--9--9--9--9--9--| 
A||--9--9--9--9--9--9--9--9--|--9--9--9--9--9--9--9--9--| 
E||--7--7--7--7--7--7--7--7--|--7--7--7--7--7--7--7--7--| 
 
                                                                                
E||--------------------------|--------------------------|------------------------| 
B||--------------------------|--------------------------|------------------------| 
G||--------------------------|--------------------------|--9----9--9----9--9--9--| 
D||--9--9--9--9--9--9--9--9--|--9--9--9--9--9--9--9--9--|--9----9--9----9--9--9--| 
A||--9--9--9--9--9--9--9--9--|--9--9--9--9--9--9--9--9--|--7----7--7----7--7--7--| 
E||--7--7--7--7--7--7--7--7--|--7--7--7--7--7--7--7--7--|------------------------| 
 
                                                                                
E||------------------------|--------------------------|--------------------------| 
B||------------------------|--------------------------|--------------------------| 
G||------------------------|--------------------------|--------------------------| 
D||--4----4--4----4--4--4--|--9--9--9--9--9--9--9--9--|--9--9--9--9--9--9--9--9--| 
A||--4----4--4----4--4--4--|--9--9--9--9--9--9--9--9--|--9--9--9--9--9--9--9--9--| 
E||--2----2--2----2--2--2--|--7--7--7--7--7--7--7--7--|--7--7--7--7--7--7--7--7--| 
 
                                                                             
E||------------------------|------------------------|--------------------------| 
B||------------------------|------------------------|--------------------------| 
G||--9----9--9----9--9--9--|------------------------|--------------------------| 
D||--9----9--9----9--9--9--|--4----4--4----4--4--4--|--9--9--9--9--9--9--9--9--| 
A||--7----7--7----7--7--7--|--4----4--4----4--4--4--|--9--9--9--9--9--9--9--9--| 
E||------------------------|--2----2--2----2--2--2--|--7--7--7--7--7--7--7--7--| 
 
                                                                              
E||--------------------------|------------------------|------------------------| 
B||--------------------------|------------------------|------------------------| 
G||--------------------------|------------------------|------------------------| 
D||--9--9--9--9--9--9--9--9--|--7----7--7----7--7--7--|--4----4--4----4--4--4--| 
A||--9--9--9--9--9--9--9--9--|--7----7--7----7--7--7--|--4----4--4----4--4--4--| 
E||--7--7--7--7--7--7--7--7--|--5----5--5----5--5--5--|--2----2--2----2--2--2--| 
                                                                          
 
E||------------------------|------------------------|--------------------------| 
B||------------------------|------------------------|--------------------------| 
G||------------------------|------------------------|--------------------------| 
D||--7----7--7----7--7--7--|--4----4--4----4--4--4--|--9--9--9--9--9--9--9--9--| 
A||--7----7--7----7--7--7--|--4----4--4----4--4--4--|--9--9--9--9--9--9--9--9--| 
E||--5----5--5----5--5--5--|--2----2--2----2--2--2--|--7--7--7--7--7--7--7--7--| 
 
                                                       
E||--------------------------|--------------------------| 
B||--------------------------|--------------------------| 
G||--9--9--9--9--9--9--9--9--|--------------------------| 
D||--9--9--9--9--9--9--9--9--|--9--9--9--9--9--9--9--9--| 
A||--7--7--7--7--7--7--7--7--|--9--9--9--9--9--9--9--9--| 
E||--------------------------|--7--7--7--7--7--7--7--7--| 
 
                                                       
E||--------------------------|--------------------------| 
B||--------------------------|--------------------------| 
G||--9--9--9--9--9--9--9--9--|--------------------------| 
D||--9--9--9--9--9--9--9--9--|--9--9--9--9--9--9--9--9--| 
A||--7--7--7--7--7--7--7--7--|--9--9--9--9--9--9--9--9--| 
E||--------------------------|--7--7--7--7--7--7--7--7--| 
 
 
                                                                              
 
 
E||--------------------------|------------------------|------------------------| 
B||--------------------------|------------------------|------------------------| 
G||--------------------------|------------------------|------------------------| 
D||--9--9--9--9--9--9--9--9--|--7----7--7----7--7--7--|--4----4--4----4--4--4--| 
A||--9--9--9--9--9--9--9--9--|--7----7--7----7--7--7--|--4----4--4----4--4--4--| 
E||--7--7--7--7--7--7--7--7--|--5----5--5----5--5--5--|--2----2--2----2--2--2--| 
 
                                                       
E||--------------------------|--------------------------| 
B||--------------------------|--------------------------| 
G||--------------------------|--9--9--9--9--9--9--9--9--| 
D||--9--9--9--9--9--9--9--9--|--9--9--9--9--9--9--9--9--| 
A||--9--9--9--9--9--9--9--9--|--7--7--7--7--7--7--7--7--| 
E||--7--7--7--7--7--7--7--7--|--------------------------| 
 
                                                       
E||--------------------------|--------------------------| 
B||--------------------------|--------------------------| 
G||--------------------------|--9--9--9--9--9--9--9--9--| 
D||--9--9--9--9--9--9--9--9--|--9--9--9--9--9--9--9--9--| 
A||--9--9--9--9--9--9--9--9--|--7--7--7--7--7--7--7--7--| 
E||--7--7--7--7--7--7--7--7--|--------------------------| 
 
                                                       
E||--------------------------|--------------------------| 
B||--------------------------|--------------------------| 
G||--------------------------|--------------------------| 
D||--9--9--9--9--9--9--9--9--|--9--9--9--9--9--9--9--9--| 
A||--9--9--9--9--9--9--9--9--|--9--9--9--9--9--9--9--9--| 
E||--7--7--7--7--7--7--7--7--|--7--7--7--7--7--7--7--7--| 
 
                                                                               
E||-------------------------|-------------------------||-------------------------| 
B||-------------------------|-------------------------||-------------------------| 
G||*------------------------|------------------------*||--------------------9----| 
D||*--7----7--7----7--7--7--|--4----4--4----4--4--4--*||--9--9--9--9--9--9--9----| 
A||---7----7--7----7--7--7--|--4----4--4----4--4--4---||--9--9--9--9--9--9--7----| 
E||---5----5--5----5--5--5--|--2----2--2----2--2--2---||--7--7--7--7--7--7-------| 
 
                                                                           
E||-------------------------|------------------------|---------------------|| 
B||-------------------------|------------------------|---------------------|| 
G||--------------------9----|--------9----------9----|--------9------------|| 
D||--9--9--9--9--9--9--9----|--9--9--9----9--9--9----|--9--9--9------------|| 
A||--9--9--9--9--9--9--7----|--9--9--7----9--9--7----|--9--9--7------------|| 
E||--7--7--7--7--7--7-------|--7--7-------7--7-------|--7--7---------------|| 
 
 
 

	  

Search Paypal
auto scroll beats size up size down change color hide chords drawings
tab show chords e-chords YouTube Clip e-chords hide all tabs e-chords go to top tab