Rammstein

home > Rammstein

Wollt Ihr Das Bett In Flammen Sehen Tab

Rammstein

Difficulty: IntermediateIntermediate

by Du+Hast

tuner correct add songbook print version text version save to e-mail
chordsukulelecavacokeyboardtabbassdrumsharmonicsflute Guitar Pro
chords

Wollt Ihr Das Bett In Flammen Sehen

  		Tuning: Dropped D (D A D G B E) 
 
       Riff 1 PM all 0's          Riff 2                  Riff 3         
E---|--------------------------|-----------------------|--------|------- 
B---|--------------------------|-----------------------|--------|------- 
G---|--5--7-----8-----7--------|-----------------------|--5--7--|------- 
D---|--5--7-----8-----7--------|--------------3--0--0--|--5--7--|------- 
A---|--3--5-----6-----5--------|--------------3--0--0--|--3--5--|------- 
D---|--------0-----0-----0--0--|--7--7--6--5--3--0--0--|--------|------- 
                                                                         
 
    Fill 1                                                               
E---------------------------|------------------------------------------- 
B---------------------------|------------------------------------------- 
G--------10-----------------|------------------------------------------- 
D--------10-----------------|------------------------------------------- 
A--------8------------------|------------------------------------------- 
D---------------------------|------------------------------------------- 
                                                                         
 
Song Progression:  
Synthesizer/drums/keyboard intro  
Riff 1 x7  
Riff 1 x13  
Verse 1 (Riff 1 x26 w/Fill 1)  
Verse 2 (Riff 1 x29 w/Fill 1)  
Riff 2 x15  
Verse 3 (Riff 3 x5)  
Riff 1 x41 w/Fill 1)  
End with Riff 3.  
Note: Tremolo pick Fill 1  
 
 
 

	  

Full key step upFull key step up
Half key step upHalf key step up
Half key step downHalf key step down
Full key step downFull key step down
Search Paypal
auto scroll beats size up size down change color hide chords drawings
tab show chords e-chords YouTube Clip e-chords hide all tabs e-chords go to top tab